Song name
# A B C D E F G H I J K L M N O P Q R S T U V W X Y Z

Clutch - Elephant Riders tab

Song: The Elephant Riders
Artist: Clutch
Tabbed by D.J. Scott
Tuning: Standard


|---------------------------------------------------------------------|
|---------------------------------------------------------------------|
|---------------------------------------------------------------------|
|---------2-0----------------2-0---5~~--------2-0------------------7--|
|----2-5------2-0--------2-5-----2--------2-5-----2-0-----7--8--9--5--|
|-0---------------3^--0----------------0--------------3^--5--6--7-----|

|-----------------------------------------------------------------------|
|-----------------------------------------------------------------------|
|-----------------------------------------------------------------------|
|-2--5-------2-0----------------7--9--5--2-2--0-------2-0---------------|
|-------2--5-----2-0---0--0--0------------------2-5-5-----2-0--0--2-----|
|--------------------------------------------------------------------3--|

|-----------------------------------------------------------------------|
|-----------------------------------------------------------------------|
|-----------------------------------------------------------------------|
|-2--5-------2-0-------------------------2-2--0-------2-0---------------|
|-------2--5-----2-0---0-0-0-0--0--2------------2-5-5-----2-0--0--2-----|
|-------------------------------------3------------------------------3--|

|------------------------------------------|
|------------------------------------------|
|----9--7----------------------------------|
|----9--7--------7-5-------9-9-9-9-7-7-7-7-|
|-2--7--5--4-5-4-----7-----7-7-7-7-5-5-5-5-|
|-0--------------------5-3-----------------|

|---------------------------------------------------|
|---------------------------------------------------|
|----9--7-------------------------------------------|
|----9--7---------------9--9--9-9-9-9-7-7-7-7-6-6-6-|
|-2--7--5--4-5-4--7--5--7--7--7-7-7-7-5-5-5-5-4-4-4-|
|-0---------------5--3------------------------------|

|----------------------------------------------------------|
|----------------------------------------------------------|
|----14--12------------------------------------------------|
|----14--12---------14-12----------14-14-14-14-12-12-12-12-|
|-7--12--10--9-10-9-------14-------12-12-12-12-10-10-10-10-|
|-5--------------------------12-10-------------------------|

|---------------------------------------------------|
|---------------------------------------------------|
|----9--7-------------------------------------------|
|----9--7---------------9--9--9-9-9-9-7-7-7-7-6-6-6-|
|-2--7--5--4-5-4--7--5--7--7--7-7-7-7-5-5-5-5-4-4-4-|
|-0---------------5--3------------------------------|

|---------------------------------------------------------------------|
|---------------------------------------------------------------------|
|---------2-0----------------2-0---5~~--------2-0------------------7--|
|----2-5------2-0--------2-5-----2--------2-5-----2-0-----7--8--9--5--|
|-0---------------3^--0----------------0--------------3^--5--6--7-----|
|---------------------------------------------------------------------|

|---------------------------------------------------------------------|
|---------------------------------------------------------------------|
|---------------------------------------------------------------------|
|---------2-0----------------2-0---5~~--------2-0------------------7--|
|----2-5------2-0--------2-5-----2--------2-5-----2-0-----7--8--9--5--|
|-0---------------3^--0----------------0--------------3^--5--6--7-----|
Tap to rate this tab
# A B C D E F G H I J K L M N O P Q R S T U V W X Y Z