Guitaretab - guitar tabs
Song name
# A B C D E F G H I J K L M N O P Q R S T U V W X Y Z

Clutch - Texan Book Of The Dead tab

#----------------------------------PLEASE NOTE---------------------------------#
#This file is the author's own work and represents their interpretation of the #
#song. You may only use this file for private study, scholarship, or research. #
From: (Burning Inside)
Date: 28 Nov 95 21:48:19 -0500
Subject: "Texan Book of the Dead" by Clutch

Texan Book of the Dead          by Clutch
                                from the album "Clutch"
                                words and music by Tim Sult, Dan Maines,
                                        Neil Fallon and Jean-Paul Gaster
                                tabbed by Tom Mallon
[ Tab from: ]
E ----------------------------------------------------------|
B ----------------------------------------------------------|
G ----------------------------------------------------------|
D ----------------------------------------------------------|
A ----------------------------------------------------------|
E --3p0-0-3p0-0-3p0-3-0-------------------------------------|

E |--------------------------|
B |--------------------------|
G |.------------------------.|
D |.------------------------.|
A |--------------------------|
E |-5p3p0-3---5p3p0-3---3--4-|

E |-----------------------------|--0---4--------------------|
B |-----------------------------|--0---4--------------------|
G |.---------------------------.|---------------------------|
D |.---------------------5--2--.|---------------------------|
A |----------------------5--2---|---------------------------|
E |-3p0-0---3p0-0---3p0--3--0---|---------------------------|

There you have it.  A very simple but extremely cool song.
Related for Texan Book Of The Dead tab