Guitaretab - guitar tabs
Song name
# A B C D E F G H I J K L M N O P Q R S T U V W X Y Z

Coal Chamber - Clock tab

Clock by Coal Chamber
Guitarist: Meegs
Dif.: 8
Album: Coal Chamber
Tabbed by Twiggy5

NOTE: Tune to B (B E A D G B)

Intro 1/Fill 1 (Gtr. 2) (clean)
G|--------0-------------0------------|
D|----4------4---------------4-------|
A|-3---------------3-------------3---|

Intro 2/Verse/Outro (w/ dist.)
E|-5-5--5-6----5-5--5-6--|
B|-3-3--3-4----3-3--3-4--|
  Pm-----|        pm-----|

Chorus (Gtr. 1)
E|----------------------------------|-%-|-%-|-%-|-%-|-%-|-%-|
B|-0-2-3-2-0--0-2-3-0-2--2-3-2--|-%-|-%-|-%-|-%-|-%-|-%-|
 Pm---------------------------------|

Chorus (Gtr. 2)
G|--------------------|-%-|-%-|---------------3---|
D|--------------------|-%-|-%-|---------------2---|
A|--------------------|-%-|-%-|---------------0---|
E|--------------------|-%-|-%-|-------------------|
B|-0-2----2-2--2-2--|-%-|-%-|-0-2---2-2---------|
 Pm-----------------------------------------|

Chorus (Gtr. 2) (cont.)
E|--------------------|-%-|-%-|------------------4--|
B|-0-2----2-2--2-2--|-%-|-%-|-0-2---0-2-3-0-2--|
  Pm---------------------------------------------|

Chorus Part 2
E|-----------------------4--4--|
B|-0-2-3-2-0--0-2-3-0-2--2--|
  Pm------------------|

Chorus Part 3 (Gtr. 1)
E|-4-----4-4---4--|-%-|-%-|-%-|
B|-2-----2-2---2--|-%-|-%-|-%-|

Bridge ("My time….. Goes by….")
B|-------------0-----------------|--------------------------|
G|-------------0-----------------|--------------------------|
D|-------------5-----------------|--------------------------|
A|-------------3-----------------|--------------------------|
E|-------------------------------|-5--4-----4-----5--4--3---|
B|--0----------------------------|-3--2--0--2-----3--2--1---|

Fill 2 (Gtr. 1) ("So……..")
B|-------------0-----------------|-----------------------|
G|-------------0-----------------|-----------------------|
D|-------------5-----------------|-----------------------|
A|-------------3-----------------|-----------------------|
E|-------------------------------|-5--4-----4------------|
B|--0----------------------------|-3--2--0--2-----(2)^---|
                                                                  ^ ˝ step
[ Tab from: http://www.guitaretab.com/c/coal-chamber/36942.html ]
Fill 2 (Gtr. 2) ("So………")
B|-------------0----------0------|------------------------------|
G|-------------0----------0------|------------------------------|
D|-------------5----------4------|------------------------------|
A|-------------3----------2------|------------------------------|
E|-------------------------------|------------------------------|
B|--0----------------------------|------------------------------|

Bridge 2 (Gtr. 1) (Slower and fade in)
E|-------2--------------------|-%-|-%-|-%-|
B|-0-0---0---0-0-0-0--0-0--|-%-|-%-|-%-|

Bridge 2 (Gtr. 2) ("3rd come closer…")
A|--9-9------------------------|-------------------------------
E|--7-7------------------------|-----------------------------8-8--
B|---------0---0-0-0-0--0-0--|-0-0----0-------0-0-0-0---0-0--

Bridge 2 (cont.)
E|--8-7-----------------------8-8--|-%-|
B|--0-0----0-----0-0-0-0----0-0--|-%-|

Fill ("than me..")
E|--2--|
B|--0--|
     Pm

Bridge 3 ("It counts my fears…")
E|-----------------|-%-|-%-|-%-|------------------------------|
B|--0-2-3-2-0---|-%-|-%-|-%-|-0-2-3-2-0--0-2-3-0-2--2-3-2--|
 Pm-----------------------------------------------------------------|

Bridge 4 (Gtr. 1)
E|-----------------------------|-%-|-----------------------|
B|-0-2-3-2-0--0-2-3-0-2--2-3-2-|-%-|-0-2-3-2-0--0-2-3-0-2--|
 Pm----------------------------------------------------------------|

Bridge 4 (Gtr. 2)
E|--------------------------------|-%-|-------------------------|
B|-2-2-2-2--2--2-2--2-2-2--2-2-2--|-%-|-2-2-2-2--2--2-2--2-2-2--|

End
E|--5--|
B|--3--|
    Pm

Song Structure: -
Tick tock, tick tock, clock
Intro 1
Intro 2
Intro 2 (Gtr. 1)/Fill 1 (Gtr. 2)
Intro 2
Verse ("Where did the time go?")
Chorus (Gtr. 1)/Chorus (Gtr. 2) ("Clock, it counts my fears….")
Chorus Part 2
Intro 2
Verse
Chorus (Gtr. 1)/Chorus (Gtr. 2)
Chorus Part 3 (Gtr. 1)/Chorus (Gtr.2) (w/ no palm mute)
Bridge
Fill 2 (Gtr. 1)/Fill 2 (Gtr. 2)
Bridge 2 (Gtr. 1)/Bridge 2 (Gtr. 2)
Bridge
Bridge (Gtr. 1)/Fill 2 (Gtr. 2)
Fill 3
Bridge 3
Bridge 4 (Gtr. 1)/Bridge 4 (Gtr. 2)
Outro
End

There ya go…. Very easy… A little hard.. Not too difficult… 
If you have any comments corrections or suggestions email me at 
ToXic345x@yahoo.ca
Related for Clock tab