Song name
# A B C D E F G H I J K L M N O P Q R S T U V W X Y Z

Coal Chamber - Big Truck tab

Artist: Coal Chamber
Song: Big truck
Album: Coal Chamber
Tuning: Standard


Intro/Verses
E]-----------------------------------------------------] 
B]-----------------------------------------------------]
G]-----------------------------------------------------]
D]-----------------------------------------------------]
A]-------------------------------------------3---------]
D]---000-6-0--00-0--6006---000-6-0--00-0--6003---------]

E]-----------------------------------------------------]
B]-----------------------------------------------------]
G]-----------------------------------------------------]
D]-----------------------------------------------------]
A]---000-6-0--00-0--6006---000-6-0--00-0--6003---------]
D]---000-6-0--00-0--6006---000-6-0--00-0--6003---------]

Chorus:
E]----------------------------------------------------]
B]------3---------3------------3----------------------]
G]------2---------2------------2----------------------]
D]----------------------------------------------------]
A]----------------------------------------------------]
D]--0--------00---------00-00-------------------------]

E]-----------------------] 
B]-----------------------] 
G]-----------------------] 
D]-------6----------6----] 
A]-------5----------5----]
D]--0----------0---------]
Tap to rate this tab
 
# A B C D E F G H I J K L M N O P Q R S T U V W X Y Z