Song name
# A B C D E F G H I J K L M N O P Q R S T U V W X Y Z

Cocofunka - Siente tab

Cocofunka

CANCION: Siente
AUTOR: Cocofunka
ALBUM: Hacer Ecoo (2012)

Versos

Cae la lluvia...

  Am       D
|-5-5-5-5--5-5-5-5----------------------------------|
|-5-5-5-5--5-5-7-7----------------------------------|
|-5-5-5-5--5-5-7-7----------------------------------|
|---------------------------------------------------|
|---------------------------------------------------|
|---------------------------------------------------|

(BAJO)

|---------------------------------------------------|
|---------------------------------------------------|
|-----3-3-------------------------------------------|
|---5-----5-----------------------------------------|



|---------------------------------------------------|
|---------------------------------------------------|
|---------7-7-5-7v-7--------------------------------|  Coro
|--7-5-7/-------------------------------------------|
|---------------------------------------------------|
|---------------------------------------------------|

(BAJO)

|--------------------------------------------------|
|---7----------------------------------------------|
|-----7-5-5-3-5-7----------------------------------|
|-5------------------------------------------------|



*La parte del teclado DESPUES DEL SEGUNDO CORO*
|---------------------------------------------------|    
|---------------------------------------------------|    
|--9-7-5-7-5---5-7----------------------------------|
|------------7--------------------------------------|
|---------------------------------------------------|
|---------------------------------------------------|

Esta es la parte toda poderosa que va antes del ultimo coro
la guitarra va parecido a esto
|---------------------------------------------------|
|-5555566666677777888999(10)(10)(11)(11)------------|
|---------------------------------------------------|
|---------------------------------------------------|
|---------------------------------------------------|
|---------------------------------------------------|

y sigue esto todo rapido casi igual que el inicio
|--5x5x5x5-5--5x5x5x5-555---------------------------|
|--5x5x5x5-5--5x5x5x5-777---------------------------|
|--5x5x5x5-5--5x5x5x5-777---------------------------|
|---------------------------------------------------|
|---------------------------------------------------|
|---------------------------------------------------|

http://cocofunka.bandcamp.com/
Tap to rate this tab
 
# A B C D E F G H I J K L M N O P Q R S T U V W X Y Z