Song name
# A B C D E F G H I J K L M N O P Q R S T U V W X Y Z

Coheed And Cambria - The End Complete Iv The Road And The Damned tab

----------------------------------------------------------------------------                
The End Complete IV: The Road and the Damned - Coheed and Cambria
----------------------------------------------------------------------------
Tabbed by: iCactusdog
Email: icactusdog@gmail.com

Tuning: Half Step Down (eb Bb Gb Db Ab Eb)

Verse and chorus:
    D  Em7  G   A
eb|-2-------3---------|
Bb|-3---3-------2-----|
Gb|-2-----------2-----|
Db|-0---2-------2-----|
Ab|-----2---2---------|
Eb|---------3---------|

Riff played in between rotations of chords in verses.
Goes: Chords --> Riff --> Chords
eb|-------------------|
Bb|-------------------|
Gb|-----------0-------|
Db|---0-0-0-----4--2--|
Ab|0h2------2---------|
Eb|-------------------|

Solo:

eb|---------10--------------------------------|
Bb|-10^(12)----10~-8-7-7p5h7------------------|
Gb|--------------------------7-9-/11-9-7---7~-|
Db|--------------------------------------9----|
Ab|-------------------------------------------|
Eb|-------------------------------------------|

eb|----------------------|
Bb|----------------------|
Gb|----------------------|
Db|-2/4\2-0-2-/4-4p2-0-2-|
Ab|----------------------|
Eb|----------------------|

eb|------------10-------10-------10-------10-------10-------10-12^(14)-12-10----10^~-|
Bb|-/10-10h12----10h12----10h12----10h12----10h12----10h12------------------12-------|
Gb|----------------------------------------------------------------------------------|
Db|----------------------------------------------------------------------------------|
Ab|----------------------------------------------------------------------------------|
Eb|----------------------------------------------------------------------------------|

eb|-------------------|
Bb|-------7-7p5---5~\-|
Gb|-7h8h9-------7-----|
Db|-------------------|
Ab|-------------------|
Eb|-------------------|

Bridge:

eb|------------------------------|---|
Bb|------------------------------|---|
Gb|-----2--2----------------2--2-|-0-|
Db|---0--0---0---/5-4-2---0--0---|-0-|
Ab|-0--2-------2--------2--0-----|-2-|
Eb|------------------------------|-3-|
   Play this riff then play the chord slowly
Outro:

eb|------------------------------------|  |-------|
Bb|------------------------------------|  |-------|
Gb|-----2--2--2----------------2--2----|  |-----2-|
Db|---0--0--0---0---/5-4-2---0--0------|  |---0---|
Ab|-2--0--2-------2--------2--0--------|  |-2-----|
Eb|---------------------------------3~-|  |-------|
   Play this twice the end with this ------^

************************************

| /   slide up
| \   slide down
| h   hammer-on
| p   pull-off
| ~   vibrato
| +   harmonic
| x   Mute note
| b   Bend
| pb  Pre-bend
| br  Bend release
| pbr Pre-bend release
| brb Bend release bend

************************************
Tap to rate this tab
 
# A B C D E F G H I J K L M N O P Q R S T U V W X Y Z