Song name
# A B C D E F G H I J K L M N O P Q R S T U V W X Y Z

Coheed And Cambria - Wake Up Acoustic tab

A few notes to point out:

-This is my first tab submission

-This is for the ITUNES ACOUSTIC VERSION of the song, not the version off of 'GAIBS4'

-This tab was originally made by topjimistheking. It was great, but I felt that it 
was missing a few notes here and there. So a majority of the props go to him, I 
added a few more revisions.

-If you don't understand the picking, listen to song and it should make a bit more 
sense. (pretty much 1/4 notes)

TUNING: (2 ways to tune)

1. (The way I use)- Standard tuning. CAPO 4TH FRET
2. Half step down - CAPO 5TH FRET


Intro, verse, pre-chorus:

4/4

  E  E   E     E E  E    E E   S S E  E    E  E  E     E S  S
|----------------------------|---------------------------------|
|----3--------------3--------|---------------------------------|
|--------0---------------0---|-----------0----2--------0-2p=0--|
|--------------0-----------0-|--------0----------0-------------|
|-3--------------3-----------|-----2---------------------------|
|----------------------------|-2h3---------0--2----------------|


 Chorus: (2 options)

1. Finger picking
  
   S  S S S E E E E E S S   E  E     E     E     E  E               S S S S
|-------------------------|----3-----------3--------3-----------------------|
|-------------------------|----3-----------3--------3---------------3p0-----|
|-------------------------|---------------------------------------------2---|
|-----------0---------0h2-|-----------------------------------------------0h|
|-------0h2---2---2-0-----|-3--------3-----------3--------------------------|
|--0h=3---------3---------|-------------------------------------------------|

  
  S S  E    E     E      E  E S S S S    E  E    E    E     E E E     E
|--------------------------------------|--------------------------------|              __
|------1----------1---------0h1p0------|----0---------0-------0-------0-|     \  /    /  \
|---2-------------2---------2-----2----|----0---------0---------------0-|      \/        |
|-2---------2------------2----------2--|--------------------------------|      /\        /
|--------------------------------------|-3-------3----------3---3-------|     /  \      /
|--------------------------------------|--------------------------------|              ----

                              
|---------||
|---------||
|---0-----||
|---0-----||
|---3-----||
|---------||


2. Chords (I actually like playing it this way a bit more)

   G, C/D, Am, C

G                 C/D
 The morning will come
        Am
 In the press of every kiss
           C
 With your head upon my chest
G                C/D
 Where I will annoy you
     Am
 With every waking breath
       C
 Until you decide to wake up.



That's pretty much all it is. But still beautiful

HOPE YOU ENJOY. DON'T FORGET TO RATE AND COMMENT.
Tap to rate this tab
 
# A B C D E F G H I J K L M N O P Q R S T U V W X Y Z