Song name
# A B C D E F G H I J K L M N O P Q R S T U V W X Y Z

Coheed And Cambria - Sentry The Defiant Acoustic tab

-----------------------------------------------------------------------------------
                                    SENTRY THE DEFIANT - Coheed & Cambria
-----------------------------------------------------------------------------------
Tabbed by: Keegan Hughes
E-mail: keeganhughes94@gmail.com

Tuning: Drop B (B, F#, B, E, G#, C#)

I believe this song was recorded in standard B tuning, but I just find playing in drop B to be a 
whole lot easier (no pun intended). 


Intro:
e|---------------------------------------------------| x2
B|-----------10-------------------------------6---5--|
G|-------7--------7----7----7------------3-----------|
D|---------------------------------------------------|
A|---------------------------------------------------|
E|---0-----------------------------------------------|


Pre-Verse:
e|--------------------------------------------------------------------------------| x2
B|--------------------------------------------------------------------------------|
G|--7-7---7---------------10-10---------------------------------------------------|
D|--7-7---7----------------7--7----8--8--8--5----5----5----5------8--8----1--1--1-|
A|--5-5---5----0--0--0-----8--8----8--8--8--5----5----5----5------8--8----1--1--1-|
E|-------------0--0--0-----------0-8--8--8--5----5----5----5------8--8----1--1--1-|
               .  .  .           .                                      

Verse:
(soft strumming)
e|--------------------------------------------------------------------------------| x4
B|--------------------------------------------------------------------------------|
G|--7-----7---------------10-10---------------------------------------------------|
D|--7-----7----------------7--7----8--8--8--5----5----5----5------8--8----1--1--1-|
A|--5-----5----0--0--0-----8--8----8--8--8--5----5----5----5------8--8----1--1--1-|
E|-------------0--0--0-----------0-8--8--8--5----5----5----5------8--8----1--1--1-|


Chorus:
e|---------------------------------------------------------------------------------------------------| x2
B|---------------------------------------------------------------------------------------------------|
G|---------------------------------------------------------------------------------------------------|
D|-0---0-0---0-0---0-0---0-8---8-8---8-8---8-8---8-5---5-5---5-5---5-5---5-----3--3------------------|
A|-0---0-0---0-0---0-0---0-8---8-8---8-8---8-8---8-5---5-5---5-5---5-5---5-----3--3------8p0---------|
E|-0---0-0---0-0---0-0---0-8---8-8---8-8---8-8---8-5---5-5---5-5---5-5---5-0---3--3---0------5-8-7-5-|
                                                                           .          .

e|-------------------------------------------------------------------------------------------------| x2
B|-------------------------------------------------------------------------------------------------|
G|-------------------------------------------------------------------------------------------------|
D|-0---0-0---0-0---0-0---0-8---8-8---8-8---8-8---8-5---5-5---5-5---5-5---5-8---8-8---8-8---8-8---8-|
A|-0---0-0---0-0---0-0---0-8---8-8---8-8---8-8---8-5---5-5---5-5---5-5---5-8---8-8---8-8---8-8---8-|
E|-0---0-0---0-0---0-0---0-8---8-8---8-8---8-8---8-5---5-5---5-5---5-5---5-8---8-8---8-8---8-8---8-|


Pre-Verse 2:
e|--------------------------------------------------------------------------------|
B|--------------------------------------------------------------------------------|
G|--7-7---7---------------10-10---------------------------------------------------|
D|--7-7---7----------------7--7----8--8--8--5----5----5----5------8--8----1--1--1-|
A|--5-5---5----0--0--0-----8--8----8--8--8--5----5----5----5------8--8----1--1--1-|
E|-------------0--0--0-----------0-8--8--8--5----5----5----5------8--8----1--1--1-|


Verse 2:
(soft strumming)
e|--------------------------------------------------------------------------------| x3
B|--------------------------------------------------------------------------------|
G|--7-----7---------------10-10---------------------------------------------------|
D|--7-----7----------------7--7----8--8--8--5----5----5----5------8--8----1--1--1-|
A|--5-----5----0--0--0-----8--8----8--8--8--5----5----5----5------8--8----1--1--1-|
E|-------------0--0--0-----------0-8--8--8--5----5----5----5------8--8----1--1--1-|


e|--------------------------------------------------------------------------------|
B|--------------------------------------------------------------------------------|
G|--7-----7---------------10-10---------------------------------------------------|
D|--7-----7----------------7--7----8--8--8--5----5----5----5------8--8----1-------|
A|--5-----5----0--0--0-----8--8----8--8--8--5----5----5----5------8--8----1-------|
E|-------------0--0--0-----------0-8--8--8--5----5----5----5------8--8----1-------|


Chorus:
e|---------------------------------------------------------------------------------------------------| x2
B|---------------------------------------------------------------------------------------------------|
G|---------------------------------------------------------------------------------------------------|
D|-0---0-0---0-0---0-0---0-8---8-8---8-8---8-8---8-5---5-5---5-5---5-5---5-----3--3------------------|
A|-0---0-0---0-0---0-0---0-8---8-8---8-8---8-8---8-5---5-5---5-5---5-5---5-----3--3------8p0---------|
E|-0---0-0---0-0---0-0---0-8---8-8---8-8---8-8---8-5---5-5---5-5---5-5---5-0---3--3---0------5-8-7-5-|
                                                                           .          .

e|-------------------------------------------------------------------------------------------------| x2
B|-------------------------------------------------------------------------------------------------|
G|-------------------------------------------------------------------------------------------------|
D|-0---0-0---0-0---0-0---0-8---8-8---8-8---8-8---8-5---5-5---5-5---5-5---5-8---8-8---8-8---8-8---8-|
A|-0---0-0---0-0---0-0---0-8---8-8---8-8---8-8---8-5---5-5---5-5---5-5---5-8---8-8---8-8---8-8---8-|
E|-0---0-0---0-0---0-0---0-8---8-8---8-8---8-8---8-5---5-5---5-5---5-5---5-8---8-8---8-8---8-8---8-|


Bridge:
e|-----------------------------------------------------------------------------------------------|
B|-----------------------------------------------------------------------------------------------|
G|-----------------------------------------------------------------------------------------------|
D|-----------------------------------------------------------------------------------------------|
A|--------------------3--3--5--5-------------------------------------3--3--5--5------------------|
E|-0---0-8-7-5-7---7--------------5--5--8---8-7-5-0---0-8-7-5-7---7--------------5--5--8---8-7-5-|


e|------------------------------------------------------------------------------------------------|
B|------------------------------------------------------------------------------------------------|
G|------------------------------------------------------------------------------------------------|
D|--8---8-8---8-8---8-8-------1---1---1-1---1---1-------------------------------------------------|
A|--8---8-8---8-8---8-8-------1---1---1-1---1---1---1---1---1---1---1---1---1---1---1---1---1---1-|
E|--8---8-8---8-8---8-8-------1---1---1-1---1---1---1---1---1---1---1---1---1---1---1---1---1---1-|
                                                    .   .   .   .   .   .   .   .   .   .   .   .

e|-----------------------------------------------------------------------------------------------|
B|-----------------------------------------------------------------------------------------------|
G|-----------------------------------------------------------------------------------------------|
D|--7---7-7-----------------7---7-7-----------------7---7-7-----------------5---5-5---8---8---8--|
A|--5---5-5-----0--10---8---5---5-5-----0--10---8---5---5-5-----0--10---8---5---5-5---8---8---8--|
E|--------------0---8---7---------------0---8---7---------------0---8---7---5---5-5---8---8---8--|


e|-------------------------------------------------------------------------------------------------|
B|-------------------------------------------------------------------------------------------------|
G|-------------------------------------------------------------------------------------------------|
D|--7---7-7-----------------7---7-7-----------------7---7-7-----------------5---5---5---5---5---5--|
A|--5---5-5-----0--10---8---5---5-5-----0--10---8---5---5-5-----0--10---8---5---5---5---5---5---5--|
E|--------------0---8---7---------------0---8---7---------------0---8---7---5---5---5---5---5---5--|


e|-------------------------------------------------------------------------------------------------|
B|-------------------------------------------------------------------------------------------------|
G|-------------------------------------------------------------------------------------------------|
D|--8---8---8---8---8---8---8---8---8---8---8---8---8---8---8---8---8---8---8---8---8---8---8---8--|
A|--8---8---8---8---8---8---8---8---8---8---8---8---5---5---5---5---5---5---5---5---5---5---5---5--|
E|--8---8---8---8---8---8---8---8---8---8---8---8---5---5---5---5---5---5---5---5---5---5---5---5--|

        [Strum]
e|-----------2~~~~~~~~------|
B|---------3~~~~~~~~~~------|
G|-------2~~~~~~~~~~~~------|
D|-----0~~~~~~~~~~~~~~------|
A|---0~~~~~~~~~~~~~~~~------|
E|-0~~~~~~~~~~~~~~~~~~------|


Pre-Solo:
e|---------------------------------------------------| x2
B|-----------10-------------------------------6---5--|
G|-------7--------7----7----7------------3-----------|
D|---------------------------------------------------|
A|---------------------------------------------------|
E|---0-----------------------------------------------|


Solo:
e|--------------------------------------------------------------------------------| x2
B|--------------------------------------------------------------------------------|
G|--7-7---7---------------10-10---------------------------------------------------|
D|--7-7---7----------------7--7----8--8--8--5----5----5----5------8--8----1--1--1-|
A|--5-5---5----0--0--0-----8--8----8--8--8--5----5----5----5------8--8----1--1--1-|
E|-------------0--0--0-----------0-8--8--8--5----5----5----5------8--8----1--1--1-|


Chorus:
e|---------------------------------------------------------------------------------------------------| x2
B|---------------------------------------------------------------------------------------------------|
G|---------------------------------------------------------------------------------------------------|
D|-0---0-0---0-0---0-0---0-8---8-8---8-8---8-8---8-5---5-5---5-5---5-5---5-----3--3------------------|
A|-0---0-0---0-0---0-0---0-8---8-8---8-8---8-8---8-5---5-5---5-5---5-5---5-----3--3------8p0---------|
E|-0---0-0---0-0---0-0---0-8---8-8---8-8---8-8---8-5---5-5---5-5---5-5---5-0---3--3---0------5-8-7-5-|
                                                                           .          .

e|-------------------------------------------------------------------------------------------------| x2
B|-------------------------------------------------------------------------------------------------|
G|-------------------------------------------------------------------------------------------------|
D|-0---0-0---0-0---0-0---0-8---8-8---8-8---8-8---8-5---5-5---5-5---5-5---5-8---8-8---8-8---8-8---8-|
A|-0---0-0---0-0---0-0---0-8---8-8---8-8---8-8---8-5---5-5---5-5---5-5---5-8---8-8---8-8---8-8---8-|
E|-0---0-0---0-0---0-0---0-8---8-8---8-8---8-8---8-5---5-5---5-5---5-5---5-8---8-8---8-8---8-8---8-|


Outro:
e|--------------------------------------------------------------------------------| x3
B|--------------------------------------------------------------------------------|
G|--7-7---7---------------10-10---------------------------------------------------|
D|--7-7---7----------------7--7----8--8--8--5----5----5----5------8--8----1--1--1-|
A|--5-5---5----0--0--0-----8--8----8--8--8--5----5----5----5------8--8----1--1--1-|
E|-------------0--0--0-----------0-8--8--8--5----5----5----5------8--8----1--1--1-|


e|--------------------------------------------------------------------------------|
B|--------------------------------------------------------------------------------|
G|--7-7---7---------------10-10---------------------------------------------------|
D|--7-7---7----------------7--7----8--8--8--5----5----5----5------8--8------------|
A|--5-5---5----0--0--0-----8--8----8--8--8--5----5----5----5------8--8--let ring--|
E|-------------0--0--0-----------0-8--8--8--5----5----5----5------8--8------------|
Tap to rate this tab
 
# A B C D E F G H I J K L M N O P Q R S T U V W X Y Z