Song name
# A B C D E F G H I J K L M N O P Q R S T U V W X Y Z

Coheed And Cambria - Pearl Of The Stars tab

-----------------------------------------------------------------------------
           Peal of the Stars [Acoustic] - Coheed and Cambria
-----------------------------------------------------------------------------
Tabbed by:3lacksabbath81
Email:sskinner@slappyjaw.com

Live at Bull Moose: Acoustic Performance/signing
Tuning: A Half Step Down
Rhythm Guitar:  
  Main Riff: [verses]
e|-------0--------|---------0----------|---------0------------|
B|-----0----0-----|-------0----0-------|-------0-----0--------|
G|---5--------5---|-----7--------7---7-|-----5---------5------|
D|-7------------7-|---5------------5---|---3-------------3----|
A|----------------|--------------------|----------------------|
E|----------------|--------------------|----------------------|
  Ending 1:
e|----------------|--------------|
B|---5-------5----|--3--------3--|
G|------0---------|-----0--------|
D|----------------|--------------|
A|---3-----3------|--2------2----|
E|----------------|--------------|
  
 Ending 2 [Pre-Chorus
e|----------0---------|
B|-----0--------0-----|
G|-0h2------------2---|
D|-------3----------3-|
A|--------------------|
E|--------------------|
  Chorus - Chords: "When you go....i will know"
e|------5---0-----||
B|--0---5---0--0--||
G|--2---5---5--2--||
D|--3---7---5--3--||
A|--3---7---3--3--||
E|--1---5------1--||

Thanks! Please Rate-
Video URL: http://www.youtube.com/watch?v=hFV6t3rUnZE
Link for Audio Download: http://www.mediafire.com/?mom3dndnd4h

Lyrics: 
Each night I wish to God he'd let her rest
Oh, this hurts me more than any man could bare
She's my angel from the west
There will never be a one to take her place

When you go I will know
Follow you to the stars
And when the world burns apart
there'll be a place for your heart

I'd give you everything
if only I'd have known you'd take it
but you don't, cause you're you
That's why I'll always love you
My Pearl of the Stars

The pill she takes, the pain of which she drowns
A baby sleeps next door, she's moved out
I tell her how wonderful you were
I'll remember everything you were to me

When you go I will know
Follow you to the stars
And when the world burns apart
there'll be a place for your heart

I'd give you everything
if only I'd have known you'd take it
but you don't, cause you're you
That's why I'll always love you
My Pearl of the Stars

When you go I will know
Follow you to the stars
And when the world burns apart
there'll be a place for your heart

I'd give you everything
if only I'd have known you'd take it
but you don't, cause you're you
That's why I'll always love you
My Pearl of the Stars 
Tap to rate this tab
# A B C D E F G H I J K L M N O P Q R S T U V W X Y Z