Song name
# A B C D E F G H I J K L M N O P Q R S T U V W X Y Z

Cokelat - Bendera tab

----------------------------------------------------------------------------
			            Bendera - Cokelat
----------------------------------------------------------------------------
Tabbed by : Gilang Jalu
 Email	  : gilangjalu@plasa.com
 Song 	  : Bendera		
 Band	  : Cokelat	

 Tuning:Standard Tuning
       E,A,D,G,B,e
============================================================================
INTRO
			    
|--------------------------------------------------------------|
|-----5---5-5-------------------5---5-5------------------------|
|-----6---6-6-------------------6---6-6---7-7-7----------------|
|-----7---7-7---6h7-----(3x)-----7---7-7---7-7-7--------(2x)---|
|-----7---7-7-------------------7---7-7---5-5-5----------------|
|-----5---5-5-------------------5---5-5------------------------|

     
|----5-----------5-------------5------------5-------------------------|
|------7-5---5-7----7-5---5-7-----7-5---5-7----7-5---5-7----(2x)------|
|----------6------------6-------------6------------6------------------|
|---------------------------------------------------------------------|
|---------------------------------------------------------------------|
|---------------------------------------------------------------------|
============================================================================
VERSE 1

 A                           B
 Biar saja ku tak sehebat matahari
 D                          A                      E
 Tapi s'lalu saja ku coba tuk manghangatkanmu

|-------------|-----------------------------------------------------|
|-------------|-----------------------------------------------------|
|-------------|-----------------------------------------------------|
|----6---7----|-------7-----7---7-----7-----6-7-6--------(repeat)---|
|----6---7----|-----7---7-7---7-----7---7-7-------------------------|
|----4---5----|---5---------------5---------------------------------|
	        	dimainkan di setiap lirik berikut
 A                           B
 Biar saja ku tak setegar batu karang
 D                        A            E
 Tapi s'lalu kucoba tuk melindungimu 

============================================================================
INT:
   
|----5-----------5-------------5------------5-------------------------|
|------7-5---5-7----7-5---5-7-----7-5---5-7----7-5---5-7--------(2x)--|
|----------6------------6-------------6------------6------------------|
|---------------------------------------------------------------------|
|---------------------------------------------------------------------|
|---------------------------------------------------------------------|

============================================================================
VERSE 2

|-------------|-----------------------------------------------------|
|-------------|-----------------------------------------------------|
|-------------|-----------------------------------------------------|
|----6---7----|-------7-----7---7-----7-----6-7-6----(repeat)-------|
|----6---7----|-----7---7-7---7-----7---7-7-------------------------|
|----4---5----|---5---------------5---------------------------------|
	        	dimainkan di setiap lirik berikut
 A                           B
 Biar saja ku tak seharum bunga mawar
 D                         A                E
 Tapi s'lalu ku coba tuk mengharumkanmu
 A                         B
 Biar saja ku tak seelok langit sore
 D                         A               E
 Tapi s'lalu ku coba tuk mengingatkanmu

=============================================================================
CHORUS
 F#              E         A            D                                                         

D                                         Kupertahankan kau demi kehormatan bangsa               

Kupertahankan kau demi tumpah darah,     						

|--------14----12----7----6---|
			|--------12----10----7----7---|
			|-----------------------------|
			|-----------------------------|
			|-----------------------------|
			|-----------------------------|
   B                          
 semua pahlawan-pahlawanku 
			|-------------------------------------------|
			|-------------------------------------------|                        
			|----9-9-9-9-9-9-9--------------------------|
			|----9-9-9-9-9-9-9---/scrap-----------------|
			|----7-7-7-7-7-7-7---/scrap-----------------|
			|-------------------------------------------|

============================================================================
REFF 1:
 A               E           F#m       E
 Merah-putih teruslah kau berkibar
   D            C#m          Bm             E 
 Di ujung tiang tertinggi, di Indonesiaku ini
  A               E           F#m       E
 Merah-putih teruslah kau berkibar
   D            C#m          Bm            E 
 Di ujung tiang tertinggi, di Indonesiaku ini
 F#m             G#m           A
 Merah-putih teruslah kau berkibar
  D               E            D
 Ku akan s'lalu menjagamu 
		       |-----------------------------------------------------|
		       |-----------------------------------------------------|
		       |----9-9-9-7-7-7-6-6-6-4-4-4-2-2-2-2----------(4x)----|
		       |----9-9-9-7-7-7-6-6-6-4-4-4-2-2-2-2----------(4x)----|
		       |-----------------------------------------------------|
		       |-----------------------------------------------------|

============================================================================

        A			     D
|-----------------------------------------------------|
|-----5---5-5-------------------5---5-5---------------|
|-----6---6-6-------------------6---6-6---7-7-7-------|
|-----7---7-7---6h7-----(3x)-----7---7-7---7-7-7------|
|-----7---7-7-------------------7---7-7---5-5-5-------|
|-----5---5-5-------------------5---5-5---------------|

============================================================================
VERSE 2
============================================================================
CHORUS
============================================================================
REFF 2:
 A               E           F#m       E
 Merah-putih teruslah kau berkibar
   D            C#m          Bm             E 
 Di ujung tiang tertinggi, di Indonesiaku ini
  A               E           F#m       E
 Merah-putih teruslah kau berkibar
   D            C#m          Bm             E 
 Di ujung tiang tertinggi, di Indonesiaku ini
 F#m             G#m            A
 Merah-putih teruslah kau berkibar
  D               E           F#m        G#m
 Ku akan s'lalu menjagamu ......
 D 	  E         D
 Ooo........ooo.......ooo.......

================================== END OF TAB ==============================
| /  slide up
| \  slide down
| h  hammer-on
| p  pull-off
| ~  vibrato
============================================================================
Tap to rate this tab
# A B C D E F G H I J K L M N O P Q R S T U V W X Y Z