Song name
# A B C D E F G H I J K L M N O P Q R S T U V W X Y Z

Cokelat - Saat Jarak Memisahkan tab

Help us improve GuitareTab! Take a short survey!
/**
*Tabbeb by	: Henri Harianja
*Email		: bigger_owe@yahoo.com
*Song title	: Saat Jarak Memisahkan (guitar solo)
*Band		: Cokelat
*Album		: Dari Hati
*
*Tuning : Standard Tuning
*	E,A,D,G,B,e
**/


Intro
e||--------------------------------------------------------|
B||-----/14---\10---\7--\5------/10------------------------|
G||--------------------------------------------------------|
D||--------------------------------------------------------|
A||--------------------------------------------------------|
E||--------------------------------------------------------|

      Let ring
e||------------------------5-5-----------------------------|
B||----------5-5----7-7----7-7-----------------------------|
G||---6-6----6-6----6-6----6-6-----------------------------|
D||---7-7----7-7----7-7----7-7-----------------------------|
A||---5-5----5-5----5-5----5-5-----------------------------|
E||--------------------------------------------------------|

Verse (Guitar 1)
     A	       		 	   E 	
e||--------------------------------------------------------|
B||--------0---------0---------2---------0-----------------|
G||------2---------2---------2---------1-------------------|
D||----2---------2---------0---------2---------------------|
A||--0-------------------2---------------------------------|
E||------------2-------------------0-----------------------|

(Guitar 2)
e||-----------|
B||--12-10----|
G||--9--9-----|
D||-----------|
A||-----------|
E||-----------|

Chorus

D C# x2 C Bm C# D Dmay7 



Solo Guitar
e||--------------------------------------------------------|
B||------------8---8/10-10---12b-12b-12b-8-----------------|
G||----------9---------------------------------------------|
D||--------7-----------------------------------------------|
A||-----/8-------------------------------------------------|
E||--------------------------------------------------------|


e||------------------------------------------15------------|
B||------------8---8/10-10---/17-15-13-12-13---------------|
G||----------9---------------------------------------------|
D||--------7-----------------------------------------------|
A||-----/8-------------------------------------------------|
E||--------------------------------------------------------|

e||--------------------------------------------------------|
B||-----------17--------15--------13-12--------------------|
G||-----16\14-----14\12-----12\10-------10-----------------|
D||--------------------------------------------------------|
A||--------------------------------------------------------|
E||--------------------------------------------------------|

e||-------8/10\8-----10/12\10-----12/13\12-----13/15\13----|
B||--------------------------------------------------------|
G||-----9---------10---------------------------------------|
D||----------------------------14-----------15----------14-|
A||--------------------------------------------------------|
E||--------------------------------------------------------|

e||---------------------/17-16-------------|
B||-----12--14--15--17---------17----------|
G||----------------------------------------|
D||----------------------------------------|
A||----------------------------------------|
E||----------------------------------------|

Solo chords
	F G F Em F G A

Regards..


Related for Saat Jarak Memisahkan tab