Song name
# A B C D E F G H I J K L M N O P Q R S T U V W X Y Z

Cold Chisel - Forever Now tab

This intro is pretty easy so have fun with it. This is my first tab ever so sorry if 
inaccurate but at least i tried. ill post the rest of the song when i figure it out so yer...

e]-------------------------------------------]
b]--------7----------------------------------]
g]-----6-----6~~-----------------------------]
d]-/7---------------------4------------------]
a]------------------4--6-----4-4-6-6~~-------]
E]-------------------------------------------]

e]---------------------------------------------]
b]--------7------------------------------------]
g]-----6-----6~~-------4-----4-----------------]
d]-/7---------------4-----4-----6~~---6p4h6--1-]
a]---------------------------------------------]
E]---------------------------------------------]

e]-------------------------------------------------------------------------]
b]--------7-----------5-7-7/10-9-------------------------------------------]
g]-----6-----6~~--6-6------------11---------------------------9--8h9p8--6/2]
d]-/7-------------------------------11-------------------------------------]
a]--------------------------------------11--9-----9--11--------------------]
E]--------------------------------------------12---------9-----------------]

e]------------------------------]
b]--------7-----------5--5h7p5--]
g]-2-2/6----6~~--6-6------------]
d]------------------------------]
a]------------------------------]
E]------------------------------]
Tap to rate this tab
 
# A B C D E F G H I J K L M N O P Q R S T U V W X Y Z