Song name
# A B C D E F G H I J K L M N O P Q R S T U V W X Y Z

Cold - Gone Away tab

Tune down 2 whole steps.


Intro
  Em7             G/C       Em7             G/C
----------------------------------------------------0----|
----------3-----------3-------------3-----------3-----3--|
------0-----------0-----0-------0-----------0-----0------|
----2---2-----------2-----2---2---2-----------2----------|
--0---------0-2-3-----------0---------0-2-3--------------|
---------------------------------------------------------|
   (Intro plays 3x)


Chorus 1
  Dsus2         D5/F             G/C           B
----------0-------------0----------------------------------------|
------3-----3-------3-----3-------------3------------------------|
----2---2-----2---2---2-----2-------0-----0-------0-------0---0--|
--0-------------3-------------0---2---2-----0---0---0---0---0----|
--------------------------------3-------------2-------2----------|
-----------------------------------------------------------------|

  Dsus2         D5/F    G/C           B
----------0------------------------------------------------(5)--|
------3-----3------------------3------------------------(5)-----|
----2---2-----2------------0-----0-------0-------0---0----------|
--0-------------3~-------2---2-----0---0---0---0---0------------|
-----------------------3-------------2-------2------------------|
----------------------------------------------------------------|


Verse 1
  Em7             G/C       Em7             G/C
----------------------------------------------------0----|
----------3-----------3-------------3-----------3-----3--|
------0-----------0-----0-------0-----------0-----0------|
----2---2-----------2-----2---2---2-----------2----------|
--0---------0-2-3-----------0---------0-2-3--------------|
---------------------------------------------------------|

  Em7             G/C       Em7             G/C
----------------------------------------------------0----|
----------3-----------3-------------3-----------3-----3--|
------0-----------0-----0-------0-----------0-----0------|
----2---2-----------2-----2---2---2-----------2----------|
--0---------0-2-3-----------0---------0-2-3--------------|
---------------------------------------------------------|

  Em7                 Em7             G/C
----------------------------------------------0----|
----------3-------------------3-----------3-----3--|
------0-------------------0-----------0-----0------|
----2---2---------------2---2-----------2----------|
--0---------0-2-3~----0---------0-2-3--------------|
---------------------------------------------------|

  Em7                 Em7             G/C
----------------------------------------------0----|
----------3-------------------3-----------3-----3--|
------0-------------------0-----------0-----0------|
----2---2---------------2---2-----------2----------|
--0---------0-2-3~----0---------0-2-3--------------|
---------------------------------------------------|


Chorus 2
  Dsus2         D5/F             G/C           B
----------0-------------0----------------------------------------|
------3-----3-------3-----3-------------3------------------------|
----2---2-----2---2---2-----2-------0-----0-------0-------0---0--|
--0-------------3-------------0---2---2-----0---0---0---0---0----|
--------------------------------3-------------2-------2----------|
-----------------------------------------------------------------|

  Dsus2         D5/F    G/C           B
----------0---------------------------------------------|
------3-----3------------------3------------------------|
----2---2-----2------------0-----0-------0-------0---0--|
--0-------------3~-------2---2-----0---0---0---0---0----|
-----------------------3-------------2-------2----------|
--------------------------------------------------------|

  Dsus2         G     Dm           G/C           B
----------0-----3-----1-----0---------------------------------------|
------3-----3-----3-----3-----3------------3------------------------|
----2---2-----2-----0-----0-----0------0-----0-------0-------0---0--|
--0----------------------------------2---2-----2---0---0---0---0----|
-----------------------------------3-------------2-------2----------|
--------------------------------------------------------------------|

  Dsus2         G     Dm           C5           B5
----------0-----3-----1-----0------------------------------------|
------3-----3-----3-----3-----3----------------------------------|
----2---2-----2-----0-----0-----0--5--5-5-5-5-5-4--4-4-5--5-5-5--|
--0--------------------------------5--5-5-5-5-5-4--4-4-5--5-5-5--|
-----------------------------------3--3-3-3-3-3-2--2-2-3--3-3-3--|
-----------------------------------------------------------------|

Solo
  D5     F5    C5      B5          C5
----------------------------------------|
----------------------------------------|
--7--7-7-10~-\-5--5--5-4--4--4-4-4-5-5--|
--7--7-7-10~-\-5--5--5-4--4--4-4-4-5-5--|
--5--5-5--8~-\-3--3--3-2--2--2-2-3-3-3--|
----------------------------------------|

D5     F5    C5      B5          C5
----------------------------------------|
----------------------------------------|
--7--7-7-10~-\-5--5--5-4--4--4-4-4-5-5--|
--7--7-7-10~-\-5--5--5-4--4--4-4-4-5-5--|
--5--5-5--8~-\-3--3--3-2--2--2-2-3-3-3--|
----------------------------------------|

D5     F5    C5      B5          C5
----------------------------------------|
----------------------------------------|
--7--7-7-10~-\-5--5--5-4--4--4-4-4-5-5--|
--7--7-7-10~-\-5--5--5-4--4--4-4-4-5-5--|
--5--5-5--8~-\-3--3--3-2--2--2-2-3-3-3--|
----------------------------------------|

D5     F5    C5      B5
--------------------------------|
--------------------------------|
--7--7-7-10~-\-5--5--5-4--4-4.--|
--7--7-7-10~-\-5--5--5-4--4-4.--|
--5--5-5--8~-\-3--3--3-2--2-2.--|
--------------------------------|


  D5     F5    C5      B5          C5
----------------------------------------|
----------------------------------------|
--7--7-7-10~-\-5--5--5-4--4--4-4-4-5-5--|
--7--7-7-10~-\-5--5--5-4--4--4-4-4-5-5--|
--5--5-5--8~-\-3--3--3-2--2--2-2-3-3-3--|
----------------------------------------|


  D5     F5    C5      B5          C5
----------------------------------------|
----------------------------------------|
--7--7-7-10~-\-5--5--5-4--4--4-4-4-5-5--|
--7--7-7-10~-\-5--5--5-4--4--4-4-4-5-5--|
--5--5-5--8~-\-3--3--3-2--2--2-2-3-3-3--|
----------------------------------------|

D5       F5    C5      B5          C5
----------------------------------------|
----------------------------------------|
--7--7-7-10~-\-5--5--5-4--4--4-4-4-5-5--|
--7--7-7-10~-\-5--5--5-4--4--4-4-4-5-5--|
--5--5-5--8~-\-3--3--3-2--2--2-2-3-3-3--|
----------------------------------------|

  D5     F5    C5      B5          C5
----------------------------------------|
----------------------------------------|
--7--7-7-10~-\-5--5--5-4--4--4-4-4-5-5--|
--7--7-7-10~-\-5--5--5-4--4--4-4-4-5-5--|
--5--5-5--8~-\-3--3--3-2--2--2-2-3-3-3--|
----------------------------------------|


Outro
  Em7             G/C       Em7             G/C
----------------------------------------------------0-------0--|
----------3-----------3-------------3-----------3-----3----3---|
------0-----------0-----0-------0-----------0-----0-------0----|
----2---2-----------2-----2---2---2-----------2----------2-----|
--0---------0-2-3-----------0---------0-2-3-------------0------|
---------------------------------------------------------------|
Tap to rate this tab
# A B C D E F G H I J K L M N O P Q R S T U V W X Y Z