Guitaretab - guitar tabs
Song name
# A B C D E F G H I J K L M N O P Q R S T U V W X Y Z
Home / C / Coldplay / Lost tab

Coldplay - Lost tab

Well, I wanted to play this song and I can't stand the Chord tabs, so I took it and put 
in a regular tab.  Enjoy.

Standard tuning

                      Just because Iím losing
E|-0--0--3--2--|----|-0----------------0----------3-|
B|-3--1--0--3--|----|-3----------------1----------0-|
G|-0--0--0--2--|(x2)|-0----------------0----------0-|
D|-x--2--0--0--|----|-x----------------2----------0-|
A|-2--3--2--0--|----|-2----------------3----------2-|
E|-0--x--3--0--|----|-0----------------x----------3-|

Verse 1
Doesnít mean Iím lost.          Doesnít mean Iíll stop.
E|------2--------0-------0---3-|--------2---------0-------0---3---|
B|------3--------3-------1---0-|--------3---------3-------1---0---|
G|------2--------0-------0---0-|--------2---------0-------0---0---|
D|------0--------x-------2---0-|--------0---------x-------2---0---|
A|------0--------2-------3---2-|--------0---------2-------3---2---|
E|------0--------0-------x---3-|--------0---------0-------x---3---|

Doesnít mean I would cross
E|------2------------0-------0---3---2---|
B|------3------------3-------1---0---3---|
G|------2------------0-------0---0---2---|
D|------0------------x-------2---0---0---|
A|------0------------2-------3---2---0---|
E|------0------------0-------x---3---0---|

Verse 2
   Just because Iím hurting       doesnít mean Iím hurt.
E|-0----------------0---------3---|-------2--------0-----0---3---|
B|-3----------------1---------0---|-------3--------3-----1---0---|
G|-0----------------0---------0---|-------2--------0-----0---0---|
D|-x----------------2---------0---|-------0--------x-----2---0---|
A|-2----------------3---------2---|-------0--------2-----3---2---|
E|-0----------------x---------3---|-------0--------0-----x---3---|

Doesnít mean I didnít get what I deserved.
E|------2-------------0--------0-3-|
B|------3-------------3--------1-0-|
G|------2-------------0--------0-0-|
D|------0-------------x--------2-0-|
A|------0-------------2--------3-2-|
E|------0-------------0--------x-3-|
  No better and no worse.
E|---2-------------0-------0---3-|
B|---3-------------3-------1---0-|
G|---2-------------0-------0---0-|
D|---0-------------x-------2---0-|
A|---0-------------2-------3---2-|
E|---0-------------0-------x---3-|

Chorus
I just got lost.
E|---------2-|
B|---------3-|
G|---------2-|
D|---------0-|
A|---------0-|
E|---------0-|

Every river that I tried to cross   every door I ever tried was locked.
E|-----------------0-----3--2-|-----------------------0-----3---2------|
B|-----------------1-----0--3-|-----------------------1-----0---3------|
G|-----------------0-----0--2-|-----------------------0-----0---2------|
D|-----------------2-----0--0-|-----------------------2-----0---0------|
A|-----------------3-----2--0-|-----------------------3-----2---0------|
E|-----------------x-----3--0-|-----------------------x-----3---0------|
  Oh and Iím just waiting Ďtil the shine wears off.
E|-------0--------3----------------------------2-|
B|-------1--------0----------------------------3-|
G|-------0--------0----------------------------2-|
D|-------2--------0----------------------------0-|
A|-------3--------2----------------------------0-|
E|-------x--------3----------------------------0-|

Riff
E|----------7---|-----------5------|
B|-------5------|--------3---------|
G|-5--7---------|--4--5------------|
D|--------------|------------------|
A|--------------|------------------|
E|--------------|------------------|
[ Tab from: http://www.guitaretab.com/c/coldplay/167575.html ]
Verse 3
   You might be a big fish         in a little pond.
E|-0---------------0---------3---|------2------0-----0---3---|
B|-3---------------1---------0---|------3------3-----1---0---|
G|-0---------------0---------0---|------2------0-----0---0---|
D|-x---------------2---------0---|------0------x-----2---0---|
A|-2---------------3---------2---|------0------2-----3---2---|
E|-0---------------x---------3---|------0------0-----x---3---|
Doesnít mean youíve won Ďcause along may come a bigger one.
E|------2-----------0--|--------0--------3------2------0-----0---3---|
B|------3-----------3--|--------1--------0------3------3-----1---0---|
G|------2-----------0--|--------0--------0------2------0-----0---0---|
D|------0-----------x--|--------2--------0------0------x-----2---0---|
A|------0-----------2--|--------3--------2------0------2-----3---2---|
E|------0-----------0--|--------x--------3------0------0-----x---3---|

Chorus
And youíll be lost.
E|------------2-|
B|------------3-|
G|------------2-|
D|------------0-|
A|------------0-|
E|------------0-|

Every river that you tried to cross   every gun you ever held went off.
E|-------------------0-----3--2-|------------------------0----3----2------|
B|-------------------1-----0--3-|------------------------1----0----3------|
G|-------------------0-----0--2-|------------------------0----0----2------|
D|-------------------2-----0--0-|------------------------2----0----0------|
A|-------------------3-----2--0-|------------------------3----2----0------|
E|-------------------x-----3--0-|------------------------x----3----0------|

  Oh and Iím just waiting Ďtil the shine wears off.
E|-------0--------3----------------------------2-|
B|-------1--------0----------------------------3-|
G|-------0--------0----------------------------2-|
D|-------2--------0----------------------------0-|
A|-------3--------2----------------------------0-|
E|-------x--------3----------------------------0-|

Riff
E|----------7---|-----------5------|
B|-------5------|--------3---------|
G|-5--7---------|--4--5------------|
D|--------------|------------------|
A|--------------|------------------|
E|--------------|------------------|

Solo
E|------10--12-12-12-12---------7----10-10-10-10----|
B|-----------------------8-7777-------------------7-|
G|-9999---------------------------------------------|
D|--------------------------------------------------|    x4
A|--------------------------------------------------|
E|--------------------------------------------------|

Outro
  Oh and Iím just waiting Ďtil the shine wears off.
E|-------0--------3----------------------------2-|
B|-------1--------0----------------------------3-|
G|-------0--------0----------------------------2-|
D|-------2--------0----------------------------0-|
A|-------3--------2----------------------------0-|
E|-------x--------3----------------------------0-|

  Oh and Iím just waiting Ďtil the shine wears off.
E|-------0--------3----------------------------2-|
B|-------1--------0----------------------------3-|
G|-------0--------0----------------------------2-|
D|-------2--------0----------------------------0-|
A|-------3--------2----------------------------0-|
E|-------x--------3----------------------------0-|

Riff
E|----------7---|-----------5------|
B|-------5------|--------3---------|
G|-5--7---------|--4--5------------|
D|--------------|------------------|
A|--------------|------------------|
E|--------------|------------------|


E|-0--0--3--2--0--0--3--0--0-|
B|-3--1--0--3--3--1--0--3--1-|
G|-0--0--0--2--0--0--0--0--0-|
D|-x--2--0--0--x--2--0--x--2-|
A|-2--3--2--0--2--3--2--2--3-|
E|-0--x--3--0--0--x--3--0--x-|
Related for Lost tab