Song name
# A B C D E F G H I J K L M N O P Q R S T U V W X Y Z

Coldplay - Lost tab

Intro:
[Em7] [C] [G] [D] x2

Verse 1:

Em7              C       G
Just because I'm losing
        D         Em7  C   G 
Doesn't mean I'm lost
        D         Em7   C   G 
Doesn't mean I'll stop
        D            Em7   C   G  D
Doesn't mean I would cross

Verse 2:

Em7              C       G
Just because I'm hurting
        D         Em7   C   G 
Doesn't mean I'm hurt
        D             Em7      C    G 
Doesn't mean I didn't get what I deserved
   D             Em7   C   G 
No better and no worse

Chorus:
 
           D
I just got lost
                   C     G  D
Every river that I tried to cross
                   C     G  D
Every door I ever tried was locked
         C
Ohhh and IIIIIIII'mmm just waiting 'til the shine wears off

    E|----------7---|    |-----------5------|
    B|-------5------|    |--------3---------|
    G|-5--7---------| x2 |--4--5------------| x2 
    D|--------------|    |------------------|
    A|--------------|    |------------------|
    E|--------------|    |------------------|

Verse 3:

Em7             C       G
You might be a big fish
     D      Em7   C   G 
In a little pond
        D           Em7
Doesn't mean you've won
        C        G      D      Em7   C      G   
'Cause along may come a bigger one


Chorus:

              D
And you'll be lost
                     C     G  D
Every river that you tried to cross
                   C     G   D
Every gun you ever held went off
         C
Ohhh and I'm
     G                            D
Just waiting 'til the firing stops
         C                 G                           D
Ohhh and IIIIIIII'mmm just waiting 'til the shine wears off

    E|----------7---|    |-----------5------|
    B|-------5------|    |--------3---------|
    G|-5--7---------| x2 |--4--5------------| x2 
    D|--------------|    |------------------|
    A|--------------|    |------------------|
    E|--------------|    |------------------|


Solo -  [E7] [C] [D] [Bm]    x4

E|-12-12-12--10--12-12-12----------------10-10-10------|
B|------------------------------------10---------------|
G|------------------------12-11-11-11-------------11---|
D|-----------------------------------------------------|    x4
A|-----------------------------------------------------|
E|-----------------------------------------------------|


Outro:

         C
Ohhh and I'm
     G                            D
Just waiting 'til the shine wears off
         C
Ohhh and IIIIIIII'mmm just waiting 'til the shine wears off

    E|----------7---|    |-----------5------|
    B|-------5------|    |--------3---------|
    G|-5--7---------| x2 |--4--5------------| x2 
    D|--------------|    |------------------|
    A|--------------|    |------------------|
    E|--------------|    |------------------|


Tap to rate this tab
 
# A B C D E F G H I J K L M N O P Q R S T U V W X Y Z