Song name
# A B C D E F G H I J K L M N O P Q R S T U V W X Y Z

Coldplay - Every Teardrop Is A Waterfall tab

-------------------------------------------------------------------------------
			             Every Teardrop Is A Waterfall - Coldplay
-------------------------------------------------------------------------------
Tabbed by: Karamezzine
Email: lahlou.karamezzine@lycee-descartes.ma

Hi Everyone ! 

This is my first Coldplay s Guitar Tab I hope you ll enjoy it !

Written by Berryman / Buckland / Champion / Martin / Allen / Anderson

Produced by Markus Dravs, Dan Green and Rik Simpson.

Enoxification and additional composition by Brian Eno.


Here we go ! 4 minutes of dream !

Intro : (00:00 --> 00:17)

The chords are : D and A

    Asus4      Dadd11       A9         A7
 
e|----5--5-|--4--4--4-|----7--7-|--5--5--5-|
B|----3--3-|--3--3--3-|----5--5-|--5--5--5-|     
G|----2--2-|--2--2--2-|----6--6-|--6--6--6-|
D|----0--0-|--0--0--0-|----5--5-|--5--5--5-|
A|----x--x-|--x--x--x-|----7--7-|--7--7--7-|
E|----x--x-|--x--x--x-|----5--5-|--5--5--5-|       Repeat x2 times !

Verse 1 : (00:17 --> 00:50)

       Asus4              Dadd11 
I turn the music up, I got my records on

       A9                      A7
I shut the world outside until the lights come on

       Asus4              Dadd11     
Maybe the streets alight, maybe the trees are gone

       A9                      A7
I feel my heart start beating to my favourite song

       Asus4              Dadd11   
And all the kids they dance, all the kids all night

       A9                      A7
Until Monday morning feels another life

       Asus4     
I turn the music up

       Dadd11 
I m on a roll this time

  F#m         A
And heaven is in sight


Solo/Riff : (00:50 --> 01:06)

************************************

| /   slide up
| \   slide down
| h   hammer-on
| p   pull-off
| ~   vibrato
| +   harmonic
| x   Mute note
| b   Bend
| pb  Pre-bend
| br  Bend release
| pbr Pre-bend release
| brb Bend release bend

************************************

         Asus4              Dadd11 
e|---14\12~--12--12--12-----------12--12h14p12|
G|----------------------14~--14---------------|
B|--------------------------------------------|
D|--------------------------------------------|
A|--------------------------------------------|
E|--------------------------------------------|

       A9                      A7
e|-----12--12--12/14--14\12-----12~~----------|
B|--14-----------------------14---------------|
G|--------------------------------------------|
D|--------------------------------------------|
A|--------------------------------------------|
E|--------------------------------------------|  Repeat x3 times !



Verse 2 : (01:06 -->01:39)


       Asus4              Dadd11 
I turn the music up, I got my records on

       A9                      A7
From underneath the rubble sing a rebel song

      Asus4              Dadd11 
Don t want to see another generation drop

       A9                      A7
I d rather be a comma than a full stop

       Asus4              Dadd11 
Maybe I m in the black, maybe I m on my knees

       A9                      A7
Maybe I m in the gap between the two trapezes

       Asus4              Dadd11 
But my heart is beating and my pulses start

  F#m         A
Cathedrals in my heart


Prechorus :  (01:39 --> 01:55)


  Asus4  Dadd11       A9   A7
And we saw     oh     this light

  Asus4  Dadd11    Asus4  Dadd11      
I swear you, emerge blinking into

    A9   A7
To tell me it s alright


Chorus : (01:55 --> 02:14)

  Asus4  Dadd11       A9   A7
As we soar            walls,

             Asus4  Dadd11      
 every siren is a symphony

             A9       A7
And every tear s a waterfall


(02:14 --> 02:27)

Is a waterfall                      PLAY
Oh                                  
Is a waterfall                      THE 
Oh oh oh
Is a is a waterfall                 SOLO
Every tear               
Is a waterfall                      AT THE SAME TIME !
Oh oh oh

Bridge : (02:27 --> 02:45)

Asus4  Dadd11    A9   A7
So you can hurt, hurt me bad

Asus4  Dadd11    A9   A7
But still Iíll raise the flag


Play the solo non stop to the end !


Pre-instrumental : (02:45 --> 03:01)

Oh
It was a wa wa wa wa wa-a-terfall
A wa wa wa wa wa-aterfall

Instrumental: (03:01 --> 03:50)

Every tear
Every tear

Every teardrop is a waterfall

Every tear
Every tear

Every teardrop is a waterfall

Outro : (03:50 --> 04:00)

Only Drums !

Good Luck !








Tap to rate this tab
 
# A B C D E F G H I J K L M N O P Q R S T U V W X Y Z