Song name
# A B C D E F G H I J K L M N O P Q R S T U V W X Y Z

Coldplay - Paradise tab

-------------------------------------------------------------------------------
			     Paradise - Coldplay
-------------------------------------------------------------------------------
Tabbed by: Jamiewbarber

Tuning:Standard

Intro

e|-------------------------------------------------------------------------|
B|---------------------17--15--13--10------10--10--8----8--10--8-----------|
G|---14--17--19------------------------------------------------------------|
D|-------------------------------------------------------------------------|
A|-------------------------------------------------------------------------|
E|-------------------------------------------------------------------------|

e|-----------10-------12--10--8--5--------5--5--3------3--5--3-------------|
B|---10--13----------------------------------------------------------------|
G|-------------------------------------------------------------------------|
D|-------------------------------------------------------------------------|
A|-------------------------------------------------------------------------|
E|-------------------------------------------------------------------------|

Solo

3.50
e|-------------------------------------------------------------------------|
B|-------------------------------------------------------------------------|
G|---15-15-15-15--15--14--14-14----14-14-14-14--12--12--12-12--------------|
D|-------------------------------------------------------------------------|
A|-------------------------------------------------------------------------|
E|-------------------------------------------------------------------------|
                                                                          X4
Tap to rate this tab
# A B C D E F G H I J K L M N O P Q R S T U V W X Y Z