Song name
# A B C D E F G H I J K L M N O P Q R S T U V W X Y Z

Coldplay - Fix You Acoustic tab

-------------------------------------------------------------------------------
                             Fix You-Coldplay
-------------------------------------------------------------------------------
E-mail: aimee.c.chow@gmail.com

I learned this by ear,just finger picking. The chords used for this are C,Em,Am. 
Make sure you play on capo 3. 
This can be used throughout the song but I haven't figured out the rest,so mainly 
used for the verses.
Thanks!

Tuning: standard, capo 3

        C                 Em             Am                     Em                 
e|---------0-------------0-------------0---------------0---------------------|
B|-1---------1---0---------0---1----------1---0--------------0---------------|
G|----0--------------0-------------2-------------0---------------------------|
D|-------2-------------2-------------2---------------2-----------------------|
A|-3---------3---2---------2---0----------0---2--------------2----(repeat)---|
E|---------------------------------------------------------------------------|
Tap to rate this tab
 
# A B C D E F G H I J K L M N O P Q R S T U V W X Y Z