Song name
# A B C D E F G H I J K L M N O P Q R S T U V W X Y Z

Coldplay - Magic chords

Highlighted       Show chord diagrams
this is my first submitted tab, please let me know if you've got a correction :)
aj.hainsworth29@gmail.com
instagram: @oheyitsaj 

Coldplay - Magic
Ghost Stories (2014)


Intro bit (repeats throughout song, no capo)
E|-----------------------------------------------------------||
B|-----------------------------------------------------------||
G|-----------------------------------------------------------||
D|-----------------------------------------------------------||    repeat as 
A|-9-9-9-9-9-9-9-9-9-4-4-11-11-11-11-11-11-11-11-11-7-7------||    many times
E|-----------------------------------------------------------||    as you want

CAPO ON 4TH FRET

    Dm    Am   E/B     C
E|--1--|--0--|--0--|--0--|
B|--3--|--1--|--1--|--1--|
G|--2--|--2--|--0--|--0--|
D|--0--|--2--|--2--|--2--|
A|--0--|--0--|--3--|--3--|
E|--0--|--0--|--3--|--0--|


Dm Am E/B C x2 (these chords repeat through the whole song)


          Dm     Am    E/B    C        Dm 
Call it magic, Call it true, Call it magic When I'm with you
and I just got broken Broken into two
Still I call it magic When I'm next to you

And I don't, And I don't
And I don't, And I don't
Know, I don't, it's true
I don't know, I don't know
I don't know, I don't
When anybody ask but you
I don't know, I don't know
I don't know, I don't
Know, I don't, it's true
I don't know, I don't know
I don't know, I don't
When anybody ask but you

Ooooh ooh ooh

Call it magic
Cut me into two
I'ma fold your magic
I disappear from view
And I can't get over
Can't get over you
Still I call it magic
It's such a passion doom

And I don't, And I don't
And I don't, And I don't
Know, I don't, it's true
I don't know, I don't know
I don't know, I don't
When anybody ask but you
I don't know, I don't know
I don't know, I don't
Know, I don't, it's true
I don't know, I don't know
I don't know, I don't
When anybody ask but you

Wanna fall
I fall so far
I wanna fall
I fall so hard
And I call it magic
And I call it true
I call it magic

Ooooh ooh ooh
Ooooh ooh ooh
Ooooh ooh ooh
Ooooh ooh ooh

And if you were to ask me
After all that we've been through
Still believe in magic
Oh yes I do
Oh yes I do
Yes I do
Oh yes I do
Of course I do
Tap to rate this tab
# A B C D E F G H I J K L M N O P Q R S T U V W X Y Z