Song name
# A B C D E F G H I J K L M N O P Q R S T U V W X Y Z

Collective Soul - Not The One tab

Help us improve GuitareTab! Take a short survey!
-------------------------------------------------------------------------
			     NOT THE ONE  Collective Soul
-------------------------------------------------------------------------
Tabbed by: kindy52

Tuning: capo second fret 

This is a fun song for beginners to learn finger 
picking coordination. 

BEGINNING
  D     G     D    G      D     G     D     G        
e|-----------------------|------------------------|
B|----3-----3----3-----3-|----3-----3-----3-----3-|
G|--2----------2---------|--2-----------2---------|
D|--------5----------5---|--------5-----------5---|
A|5-----2-----5----2-----|5-----2-----5-----2-----|
E|-----------------------|------------------------|

  D     G       D     G      D     G     D     G        
e|--------------------------|------------------------|
B|----3-------3-----3-----3-|----3-----3-----3-----3-|
G|--2-------2-----2---------|--2-----2-----2-----4---|
D|4-----5p4-2-4---------5---|------------------5-----|
A|--------------5-----2-----|------2-----5-----------|
E|--------------------------|5-------5-3-------------|


VERSE: 
  D     G       D     G      D     G     D     G        
e|--------------------------|------------------------|
B|----3-------3-----3-----3-|----3-----3-----3-----3-|
G|--2-------2-----2---------|--2-----2-----2-----4---|
D|4-----5p4-2-4---------5---|------------------5-----|
A|--------------5-----2-----|------2-----5-----------|
E|--------------------------|5-------5-3-------------|
  I waltzed around you seven times only to become

VERSE:
  D     G       D     G      D     G     D     G        
e|--------------------------|------------------------|
B|----3-------3-----3-----3-|----3-----3-----3-----3-|
G|--2-------2-----2---------|--2-----2-----2-----4---|
D|4-----5p4-2-4---------5---|------------------5-----|
A|--------------5-----2-----|------2-----5-----------|
E|--------------------------|5-------5-3-------------|
  A melody you never sang   Im not the one.

CHORUS: (repeat)
  E           G            D                           
e|------------------3-----|------------------------|
B|------5-------3-----3---|----3-----3-----3-----3-|
G|--------4-------4-----4-|--2-----------2---------|
D|2---2-----2-5-----------|--------5-----------5---|
A|--2---------------------|5-----2-----5-----2-----|
E|------------------------|------------------------|
  Ohooooooh, Im not the one.

Second verse:
Clouds of thought you filter through never to reason
While patiently your world still bleeds, who will be the one.

Repeat chorus
Solo
Repeat first verse.
Related for Not The One tab