Song name
# A B C D E F G H I J K L M N O P Q R S T U V W X Y Z

Collective Soul - Dig tab

-------------------------------------------------------------------------------
			     Dig - Collective Soul
-------------------------------------------------------------------------------
Tabbed by: peavy12
Email: unknown

Tuning: Standard

e|---------------------------------------------------------------------------|
B|---------------------------------------------------------------------------|
G|--9-6---------------------------9-6---------------------9--9---9---9-------|
D|-----------7--------------7--------------7--------------9--9---9---9-------|
A|--------9-----9-----7--9-----9--------9-----9-----7--9--7--7---7---7-------|
E|----------------9-----------------------------9----------------------------|

 There's  this wierd part ^ there i cant figure out but its a small detail so...
Tap to rate this tab
# A B C D E F G H I J K L M N O P Q R S T U V W X Y Z