Song name
# A B C D E F G H I J K L M N O P Q R S T U V W X Y Z

Collective Soul - Blame tab

This is the best band in the world
Tabbed by Mr Toich

|-3h5---5------------------------|
|----0---0---3-1----2h3--4-----3-|
|-----0---------0------0--0---0--|
|----------------0------0----0---|  x2
|-0----------0-0--0-0-------0----|
|--------------------------------|

|-7h9--9-----3-------------------|
|----0--0---3-3------------------|
|-----0----0---0-----------------|
|---------0-----0----------------|  x3
|-0------------------------------|
|--------------------------------|
     F
|--------1---1---1---------------|
|----1--1-1---1---1--------------|
|---2--2---2---2---2-------------|
|--3--3--------------------------|
|-0------------------------------|
|--------------------------------|
Tap to rate this tab
# A B C D E F G H I J K L M N O P Q R S T U V W X Y Z