Song name
# A B C D E F G H I J K L M N O P Q R S T U V W X Y Z

Collective Soul - Lighten Up tab

Very fun song from 2009's self titled cd, aka "Rabbit".

Standard tuning

Riff/verse:
A D A D A D

Chorus:
E A E A E A D C

Joel plays the chords with a slide, like:
E
G|---/9~~---|
D|---/9~~---|

A
B|--/10~~---|
G|---/9~~---|

D
G|---/7~~---|
D|---/7~~---|


Bridge riff:
e|-------------------------------------------------------|
B|-------------------------------------------------------|
G|-------------------------------------------------------|
D|--------5---------------------------5------------------|
A|--------5---3-5-3-1---1-------------5---3-5-3-1---1-3--|
E|--3-3-3-3-----------3---3-----3-3-3-3-----------3------|

then alternate to power G chords instead of the P.M. part


Solo rhythm: A

Solo (2 or 3 guitars arranged for 1):

e|---------------------------------------------------9--9--9--9--9--9--9--9--5----5----|
B|--10-10-10-10-10-10-10-10-10-10-10-10-10-10-10-10-10-10-10-10-10-10-10-10--8b~--8b~--|
G|---9--9--9--9--9--9--9--9--9--9--9--9--9--9--9--9--9--9--9--9--9--9--9--9------------|
D|-------------------------------------------------------------------------------------|
A|-------------------------------------------------------------------------------------|
E|-------------------------------------------------------------------------------------|

e|-------------------------------------------------------------|
B|-----7~--8~--7~--8~--8p7-5~----7~--8~-8/10~--10~--10~--10~---|
G|--/9---------------------------------------------------------|
D|-------------------------------------------------------------|
A|-------------------------------------------------------------|
E|-------------------------------------------------------------|

by Marcos Nagato
marcos.nagato@gmail.com
Tap to rate this tab
# A B C D E F G H I J K L M N O P Q R S T U V W X Y Z