Collective Soul - Burn tab

Burn
Collective Soul
Home: A Live Concert Recording With the Atlanta Symphony Youth Orchestra (2006)

Words & Music by Ed Roland and Collective Soul

NOTE: I couldn't figure out the last 4 bars of the solo, but the rest is there.

GTR I - Eb Tuning "Ed Roland" (eb,Bb,Gb,Db,Ab,Eb)
GTR II - Eb Tuning "Joel Kosche" (eb,Bb,Gb,Db,Ab,Eb)
GTR III - Eb Tuning "Dean Roland" (eb,Bb,Gb,Db,Ab,Eb)

Intro

   GTR I,II,II
eb|-------------------------------------------------|
Bb|-------------------------------------------------|
Gb|-------------------------------------------------|
Db|--2-----2-----------------2-----2----------------|
Ab|--0-----0-----------------0-----0----------------|
Eb|-------------------------------------------------|
     .     .                 .     .

   GTR I,II,II
eb|-------------------------------------------------|
Bb|-------------------------------------------------|
Gb|-------------------------------------------------|
Db|--2-----2----------------------------------------|
Ab|--0-----0----------------------------------------|
Eb|-------------------------------------------------|
     .     .                          

Main Riff

   GTR I,III
eb|-------------------------------------------------|
Bb|-------------------------------------------------|
Gb|-------------------------------------------------|
Db|--2-----2-----3p-2--------2-----2-----3p-2-------|
Ab|--0-----0-----------------0-----0----------------|
Eb|-------------------------------------------------|
  |  .     .                 .     .  
  |GTR II
eb|-------------------------------------------------|
Bb|--------------6p-5--------------------6p-5-------|
Gb|-------------------------------------------------|
Db|--2-----2-----------------2-----2----------------|
Ab|--0-----0-----------------0-----0----------------|
Eb|-------------------------------------------------|
     .     .                 .     .  

   GTR I,III
eb|-------------------------------------------------|
Bb|-------------------------------------------------|
Gb|-------------------------------------------------|
Db|--2-----2-----3p-2-----------2--------3p-2--0h-2-|
Ab|--0-----0-----------------3-----3p-2-------------|
Eb|-------------------------------------------------|
  |  .     .                          
  |GTR II
eb|-------------------------------------------------|
Bb|--------------6p-5-----------5--------6p-5--3h-5-|
Gb|--------------------------5-----5p-4-------------|
Db|--2-----2----------------------------------------|
Ab|--0-----0----------------------------------------|
Eb|-------------------------------------------------|
     .     .                          

   GTR I,III
eb|-------------------------------------------------|
Bb|-------------------------------------------------|
Gb|-------------------------------------------------|
Db|--2-----2-----3p-2--------2-----2-----3p-2-------|
Ab|--0-----0-----------------0-----0----------------|
Eb|-------------------------------------------------|
  |  .     .                 .     .  
  |GTR II
eb|-------------------------------------------------|
Bb|--------------6p-5--------------------6p-5-------|
Gb|-------------------------------------------------|
Db|--2-----2-----------------2-----2----------------|
Ab|--0-----0-----------------0-----0----------------|
Eb|-------------------------------------------------|
     .     .                 .     .  

   GTR I,III
eb|-------------------------------------------------|
Bb|-------------------------------------------------|
Gb|-------------------------------------------------|
Db|--2-----2-----3p-2-----------2--------3p-2--0h-2-|
Ab|--0-----0-----------------3-----3p-2-------------|
Eb|-------------------------------------------------|
  |  .     .                          
  |GTR II
eb|-------------------------------------------------|
Bb|--------------6p-5-----------5--------6p-5--3h-5-|
Gb|--------------------------5-----5p-4-------------|
Db|--2-----2----------------------------------------|
Ab|--0-----0----------------------------------------|
Eb|-------------------------------------------------|
     .     .                          

   GTR I,III
eb|-------------------------------------------------|
Bb|-------------------------------------------------|
Gb|-------------------------------------------------|
Db|--2-----2-----3p-2--------2-----2-----3p-2-------|
Ab|--0-----0-----------------0-----0----------------|
Eb|-------------------------------------------------|
  |  .     .                 .     .  
  |GTR II
eb|-------------------------------------------------|
Bb|--------------6p-5--------------------6p-5-------|
Gb|-------------------------------------------------|
Db|--2-----2-----------------2-----2----------------|
Ab|--0-----0-----------------0-----0----------------|
Eb|-------------------------------------------------|
     .     .                 .     .  

   GTR I,III
eb|-------------------------------------------------|
Bb|-------------------------------------------------|
Gb|-------------------------------------------------|
Db|--2-----2-----3p-2-----------2--------3p-2--0h-2-|
Ab|--0-----0-----------------3-----3p-2-------------|
Eb|-------------------------------------------------|
  |  .     .                          
  |GTR II
eb|-------------------------------------------------|
Bb|--------------6p-5-----------5--------6p-5--3h-5-|
Gb|--------------------------5-----5p-4-------------|
Db|--2-----2----------------------------------------|
Ab|--0-----0----------------------------------------|
Eb|-------------------------------------------------|
     .     .                          

Verse

   GTR II,III
eb|-------------------------------------------------|
Bb|-------------------------------------------------|
Gb|--2--------------------2-------------------------|
Db|--2-----------x--x--x--2-------------------------|
Ab|--0-----------x--x--x--0-------------------------|
Eb|--------------x--x--x----------------------------|

   GTR II,III
eb|-------------------------------------------------|
Bb|-------------------------------------------------|
Gb|--2--------------------2-------------------------|
Db|--2-----------x--x--x--2-------------------------|
Ab|--0-----------x--x--x--0-------------------------|
Eb|--------------x--x--x----------------------------|

   GTR II,III
eb|--x--------------------x-------------------------|
Bb|--3--------------------3-------------------------|
Gb|--2--------------------2-------------------------|
Db|--0-----------x--x--x--0-------------------------|
Ab|--0-----------x--x--x--0-------------------------|
Eb|--3-----------x--x--x--3-------------------------|

   GTR II,III
eb|--x--------------------x-------------------------|
Bb|--3--------------------3-------------------------|
Gb|--2--------------------2-------------------------|
Db|--0-----------x--x--x--0-------------------------|
Ab|--0-----------x--x--x--0-------------------------|
Eb|--2-----------x--x--x--2-------------------------|

   GTR II,III
eb|-------------------------------------------------|
Bb|-------------------------------------------------|
Gb|--2--------------------2-------------------------|
Db|--2-----------x--x--x--2-------------------------|
Ab|--0-----------x--x--x--0-------------------------|
Eb|--------------x--x--x----------------------------|

   GTR II,III
eb|-------------------------------------------------|
Bb|-------------------------------------------------|
Gb|--2--------------------2-------------------------|
Db|--2-----------x--x--x--2-------------------------|
Ab|--0-----------x--x--x--0-------------------------|
Eb|--------------x--x--x----------------------------|

   GTR II,III
eb|--x--------------------x-------------------------|
Bb|--3--------------------3-------------------------|
Gb|--2--------------------2-------------------------|
Db|--0-----------x--x--x--0-------------------------|
Ab|--0-----------x--x--x--0-------------------------|
Eb|--3-----------x--x--x--3-------------------------|

   GTR II,III
eb|--x--------------------x-------------------------|
Bb|--3--------------------3-------------------------|
Gb|--2--------------------2-------------------------|
Db|--0-----------x--x--x--0-------------------------|
Ab|--0-----------x--x--x--0-------------------------|
Eb|--2-----------x--x--x--2-------------------------|

Chorus

   GTR I,II,III
eb|-------------------------------------------------|
Bb|-------------------------------------------------|
Gb|--2-----2-----2-----2-----2-----2-----2-----2----|
Db|--2-----2-----2-----2-----2-----2-----2-----2----|
Ab|--0-----0-----0-----0-----0-----0-----0-----0----|
Eb|-------------------------------------------------|

   GTR I,II,III
eb|-------------------------------------------------|
Bb|-------------------------------------------------|
Gb|--5-----5-----5-----5-----5-----5-----5-----5----|
Db|--5-----5-----5-----5-----5-----5-----5-----5----|
Ab|--3-----3-----3-----3-----3-----3-----3-----3----|
Eb|-------------------------------------------------|

   GTR I,II,III
eb|-------------------------------------------------|
Bb|-------------------------------------------------|
Gb|--7-----7-----7-----7-----7-----7-----7-----7----|
Db|--7-----7-----7-----7-----7-----7-----7-----7----|
Ab|--5-----5-----5-----5-----5-----5-----5-----5----|
Eb|-------------------------------------------------|

   GTR I,II,III
eb|-------------------------------------------------|
Bb|-------------------------------------------------|
Gb|--2-----2-----2-----2----------------------------|
Db|--2-----2-----2-----2----------------------------|
Ab|--0-----0-----0-----0----------------------------|
Eb|--------------------------3h-5-----5--3h-5-----5-|

   GTR I,II,III
eb|-------------------------------------------------|
Bb|-------------------------------------------------|
Gb|--2-----2-----2-----2-----2-----2-----2-----2----|
Db|--2-----2-----2-----2-----2-----2-----2-----2----|
Ab|--0-----0-----0-----0-----0-----0-----0-----0----|
Eb|-------------------------------------------------|

   GTR I,II,III
eb|-------------------------------------------------|
Bb|-------------------------------------------------|
Gb|--5-----5-----5-----5-----5-----5-----5-----5----|
Db|--5-----5-----5-----5-----5-----5-----5-----5----|
Ab|--3-----3-----3-----3-----3-----3-----3-----3----|
Eb|-------------------------------------------------|

   GTR I,II,III
eb|-------------------------------------------------|
Bb|-------------------------------------------------|
Gb|--7-----7-----7-----7-----7-----7-----7-----7----|
Db|--7-----7-----7-----7-----7-----7-----7-----7----|
Ab|--5-----5-----5-----5-----5-----5-----5-----5----|
Eb|-------------------------------------------------|

Post Chorus

   GTR I,III
eb|-------------------------------------------------|
Bb|-------------------------------------------------|
Gb|-------------------------------------------------|
Db|--2-----2-----3p-2--------2-----2-----3p-2-------|
Ab|--0-----0-----------------0-----0----------------|
Eb|-------------------------------------------------|
  |  .     .                 .     .  
  |GTR II
eb|-------------------------------------------------|
Bb|--------------6p-5--------------------6p-5-------|
Gb|-------------------------------------------------|
Db|--2-----2-----------------2-----2----------------|
Ab|--0-----0-----------------0-----0----------------|
Eb|-------------------------------------------------|
     .     .                 .     .  

   GTR I,III
eb|-------------------------------------------------|
Bb|-------------------------------------------------|
Gb|-------------------------------------------------|
Db|--2-----2-----3p-2-----------2--------3p-2--0h-2-|
Ab|--0-----0-----------------3-----3p-2-------------|
Eb|-------------------------------------------------|
  |  .     .                          
  |GTR II
eb|-------------------------------------------------|
Bb|--------------6p-5-----------5--------6p-5--3h-5-|
Gb|--------------------------5-----5p-4-------------|
Db|--2-----2----------------------------------------|
Ab|--0-----0----------------------------------------|
Eb|-------------------------------------------------|
     .     .                          

   GTR I,III
eb|-------------------------------------------------|
Bb|-------------------------------------------------|
Gb|-------------------------------------------------|
Db|--2-----2-----3p-2--------2-----2-----3p-2-------|
Ab|--0-----0-----------------0-----0----------------|
Eb|-------------------------------------------------|
  |  .     .                 .     .  
  |GTR II
eb|-------------------------------------------------|
Bb|--------------6p-5--------------------6p-5-------|
Gb|-------------------------------------------------|
Db|--2-----2-----------------2-----2----------------|
Ab|--0-----0-----------------0-----0----------------|
Eb|-------------------------------------------------|
     .     .                 .     .  

   GTR I,III
eb|-------------------------------------------------|
Bb|-------------------------------------------------|
Gb|-------------------------------------------------|
Db|--2-----2-----3p-2-----------2--------3p-2--0h-2-|
Ab|--0-----0-----------------3-----3p-2-------------|
Eb|-------------------------------------------------|
  |  .     .                          
  |GTR II
eb|-------------------------------------------------|
Bb|--------------6p-5-----------5--------6p-5--3h-5-|
Gb|--------------------------5-----5p-4-------------|
Db|--2-----2----------------------------------------|
Ab|--0-----0----------------------------------------|
Eb|-------------------------------------------------|
     .     .                          

Verse 2

   GTR II,III
eb|-------------------------------------------------|
Bb|-------------------------------------------------|
Gb|--2--------------------2-------------------------|
Db|--2-----------x--x--x--2-------------------------|
Ab|--0-----------x--x--x--0-------------------------|
Eb|--------------x--x--x----------------------------|

   GTR II,III
eb|-------------------------------------------------|
Bb|-------------------------------------------------|
Gb|--2--------------------2-------------------------|
Db|--2-----------x--x--x--2-------------------------|
Ab|--0-----------x--x--x--0-------------------------|
Eb|--------------x--x--x----------------------------|

   GTR II,III
eb|--x--------------------x-------------------------|
Bb|--3--------------------3-------------------------|
Gb|--2--------------------2-------------------------|
Db|--0-----------x--x--x--0-------------------------|
Ab|--0-----------x--x--x--0-------------------------|
Eb|--3-----------x--x--x--3-------------------------|

   GTR II,III
eb|--x--------------------x-------------------------|
Bb|--3--------------------3-------------------------|
Gb|--2--------------------2-------------------------|
Db|--0-----------x--x--x--0-------------------------|
Ab|--0-----------x--x--x--0-------------------------|
Eb|--2-----------x--x--x--2-------------------------|

   GTR II,III
eb|-------------------------------------------------|
Bb|-------------------------------------------------|
Gb|--2--------------------2-------------------------|
Db|--2-----------x--x--x--2-------------------------|
Ab|--0-----------x--x--x--0-------------------------|
Eb|--------------x--x--x----------------------------|

   GTR II,III
eb|-------------------------------------------------|
Bb|-------------------------------------------------|
Gb|--2--------------------2-------------------------|
Db|--2-----------x--x--x--2-------------------------|
Ab|--0-----------x--x--x--0-------------------------|
Eb|--------------x--x--x----------------------------|

   GTR II,III
eb|--x--------------------x-------------------------|
Bb|--3--------------------3-------------------------|
Gb|--2--------------------2-------------------------|
Db|--0-----------x--x--x--0-------------------------|
Ab|--0-----------x--x--x--0-------------------------|
Eb|--3-----------x--x--x--3-------------------------|

   GTR II,III
eb|--x--------------------x-------------------------|
Bb|--3--------------------3-------------(4)(4)(4)(4)|
Gb|--2--------------------2-------------------------|
Db|--0-----------x--x--x--0-------------------------|
Ab|--0-----------x--x--x--0-------------------------|
Eb|--2-----------x--x--x--2-------------------------|

Chorus 2

   GTR I,III
eb|-------------------------------------------------|
Bb|-------------------------------------------------|
Gb|--2-----2-----2-----2-----2-----2-----2-----2----|
Db|--2-----2-----2-----2-----2-----2-----2-----2----|
Ab|--0-----0-----0-----0-----0-----0-----0-----0----|
Eb|-------------------------------------------------|
  |
  |GTR II (w. Flanger)
eb|-------------------------------------------------|
Bb|-------------10----------------------10----------|
Gb|--------9-----------9-----------9-----------9----|
Db|--7-----------------------7----------------------|
Ab|-------------------------------------------------|
Eb|-------------------------------------------------|

   GTR I,III
eb|-------------------------------------------------|
Bb|-------------------------------------------------|
Gb|--5-----5-----5-----5-----5-----5-----5-----5----|
Db|--5-----5-----5-----5-----5-----5-----5-----5----|
Ab|--3-----3-----3-----3-----3-----3-----3-----3----|
Eb|-------------------------------------------------|
  |
  |GTR II (w. Flanger)
eb|-------------------------------------------------|
Bb|-------------13----------------------13----------|
Gb|-------12----------12----------12----------12----|
Db|-10----------------------10----------------------|
Ab|-------------------------------------------------|
Eb|-------------------------------------------------|

   GTR I,III
eb|-------------------------------------------------|
Bb|-------------------------------------------------|
Gb|--7-----7-----7-----7-----7-----7-----7-----7----|
Db|--7-----7-----7-----7-----7-----7-----7-----7----|
Ab|--5-----5-----5-----5-----5-----5-----5-----5----|
Eb|-------------------------------------------------|
  |
  |GTR II (w. Flanger)
eb|-------------------------------------------------|
Bb|-------------15----------------------15----------|
Gb|-------14----------14----------14----------14----|
Db|-12----------------------12----------------------|
Ab|-------------------------------------------------|
Eb|-------------------------------------------------|

   GTR I,III
eb|-------------------------------------------------|
Bb|-------------------------------------------------|
Gb|--2-----2-----2-----2----------------------------|
Db|--2-----2-----2-----2----------------------------|
Ab|--0-----0-----0-----0----------------------------|
Eb|--------------------------3h-5-----5--3h-5-----5-|
  |
  |GTR II (w. Flanger)
eb|-------------------------------------------------|
Bb|-------------10----------------------------------|
Gb|--------9-----------9----------------------------|
Db|--7----------------------------------------------|
Ab|-------------------------------------------------|
Eb|-------------------------------------------------|

   GTR I,III
eb|-------------------------------------------------|
Bb|-------------------------------------------------|
Gb|--2-----2-----2-----2-----2-----2-----2-----2----|
Db|--2-----2-----2-----2-----2-----2-----2-----2----|
Ab|--0-----0-----0-----0-----0-----0-----0-----0----|
Eb|-------------------------------------------------|
  |
  |GTR II (w. Flanger)
eb|-------------------------------------------------|
Bb|-------------10----------------------10----------|
Gb|--------9-----------9-----------9-----------9----|
Db|--7-----------------------7----------------------|
Ab|-------------------------------------------------|
Eb|-------------------------------------------------|

   GTR I,III
eb|-------------------------------------------------|
Bb|-------------------------------------------------|
Gb|--5-----5-----5-----5-----5-----5-----5-----5----|
Db|--5-----5-----5-----5-----5-----5-----5-----5----|
Ab|--3-----3-----3-----3-----3-----3-----3-----3----|
Eb|-------------------------------------------------|
  |
  |GTR II (w. Flanger)
eb|-------------------------------------------------|
Bb|-------------13----------------------13----------|
Gb|-------12----------12----------12----------12----|
Db|-10----------------------10----------------------|
Ab|-------------------------------------------------|
Eb|-------------------------------------------------|

   GTR I,III
eb|-------------------------------------------------|
Bb|-------------------------------------------------|
Gb|--7-----7-----7-----7-----7-----7-----7-----7----|
Db|--7-----7-----7-----7-----7-----7-----7-----7----|
Ab|--5-----5-----5-----5-----5-----5-----5-----5----|
Eb|-------------------------------------------------|
  |
  |GTR II (w. Flanger)
eb|-------------------------------------------------|
Bb|-------------15----------------------15----------|
Gb|-------14----------14----------14----------14----|
Db|-12----------------------12----------------------|
Ab|-------------------------------------------------|
Eb|-------------------------------------------------|

Bridge

   GTR II (w. Flanger)
eb|-------------------------------------------------|
Bb|-------------------------------------------------|
Gb|-------------------------------------------------|
Db|--------------------------------------------5----|
Ab|--0-----0--0--3h-5-----0-----0--0h-3--3h-5-------|
Eb|-------------------------------------------------|

   GTR II (w. Flanger)
eb|-------------------------------------------------|
Bb|-------------------------------------------------|
Gb|-------------------------------------------------|
Db|--------------------------------------------5----|
Ab|--0-----0--0--3h-5-----0-----0--0h-3--3h-5-------|
Eb|-------------------------------------------------|

   GTR II (w. Flanger)
eb|-------------------------------------------------|
Bb|-------------------------------------------------|
Gb|-------------------------------------------------|
Db|--------------------------------------------5----|
Ab|--0-----0--0--3h-5-----0-----0--0h-3--3h-5-------|
Eb|-------------------------------------------------|

   GTR I,III
eb|-------------------------------------------------|
Bb|-------------------------------------------------|
Gb|-------------------------------------------------|
Db|-------------------------------------------------|
Ab|-------------------------------------------------|
Eb|--------------------------------3b---------------|
  |
  |GTR II (w. Flanger)
eb|-------------------------------------------------|
Bb|-------------------------------------------------|
Gb|-------------------------------------------------|
Db|-------------------------------------------------|
Ab|--0-----0--0--3h-5-----0-----0-------------------|
Eb|-------------------------------------------------|

   GTR I,III
eb|-------------------------------------------------|
Bb|-------------------------------------------------|
Gb|-------------------------------------------------|
Db|--------------------------------------------5----|
Ab|--0-----0--0--3h-5-----0-----0--0h-3--3h-5-------|
Eb|-------------------------------------------------|

   GTR I,III
eb|-------------------------------------------------|
Bb|-------------------------------------------------|
Gb|-------------------------------------------------|
Db|--------------------------------------------5----|
Ab|--0-----0--0--3h-5-----0-----0--0h-3--3h-5-------|
Eb|-------------------------------------------------|

   GTR I,III
eb|-------------------------------------------------|
Bb|-------------------------------------------------|
Gb|-------------------------------------------------|
Db|--------------------------------------------5----|
Ab|--0-----0--0--3h-5-----0-----0--0h-3--3h-5-------|
Eb|-------------------------------------------------|

   GTR I,III
eb|-------------------------------------------------|
Bb|-------------------------------------------------|
Gb|-------------------------------------------------|
Db|-------------------------------------------------|
Ab|--0-----0--0--3h-5-----0-----0-------------------|
Eb|--------------------------------3--3--3--3--3--3-|
  |
  |GTR II (w. Flanger)
eb|-------------------------------------------------|
Bb|-------------------------------------------------|
Gb|-------------------------------------------------|
Db|-------------------------------------------------|
Ab|-----------------------------------------Pickslid|
Eb|-----------------------------------------Pickslid|

Guitar Solo

   GTR I,III
eb|-------------------------------------------------|
Bb|-------------------------------------------------|
Gb|--2-----2-----2-----2-----2-----2-----2-----2----|
Db|--2-----2-----2-----2-----2-----2-----2-----2----|
Ab|--0-----0-----0-----0-----0-----0-----0-----0----|
Eb|-------------------------------------------------|
  |
  | PH.
eb|-------------------------------------------------|
Bb|-------------------------------------------------|
Gb|--5b---------------------------------------------|
Db|--------------7-----5--7-----5--7~----------5h-7-|
Ab|-------------------------------------------------|
Eb|-------------------------------------------------|

   GTR I,III
eb|-------------------------------------------------|
Bb|-------------------------------------------------|
Gb|--5-----5-----5-----5-----5-----5-----5-----5----|
Db|--5-----5-----5-----5-----5-----5-----5-----5----|
Ab|--3-----3-----3-----3-----3-----3-----3-----3----|
Eb|-------------------------------------------------|
  |
  |GTR II
eb|-------------------------------------------------|
Bb|-------------------------------------------------|
Gb|--5b---------------------------------------------|
Db|--------------7-----5--7-----5--7~----------5h-7-|
Ab|-------------------------------------------------|
Eb|-------------------------------------------------|

   GTR I,III
eb|-------------------------------------------------|
Bb|-------------------------------------------------|
Gb|--7-----7-----7-----7-----7-----7-----7-----7----|
Db|--7-----7-----7-----7-----7-----7-----7-----7----|
Ab|--5-----5-----5-----5-----5-----5-----5-----5----|
Eb|-------------------------------------------------|
  |
  |GTR II
eb|-------------------------------------------------|
Bb|-------------------------------------------------|
Gb|--5b---------------------------------------------|
Db|--------------7--7--5--7-----5--7~---------------|
Ab|-------------------------------------------------|
Eb|-------------------------------------------------|

   GTR I,III
eb|-------------------------------------------------|
Bb|-------------------------------------------------|
Gb|--2-----2-----2-----2-----2-----2-----2-----2----|
Db|--2-----2-----2-----2-----2-----2-----2-----2----|
Ab|--0-----0-----0-----0-----0-----0-----0-----0----|
Eb|-------------------------------------------------|
  |
  |GTR II
eb|-------------------------------------------------|
Bb|-------------------------------------------------|
Gb|-7h8p7--5--------------7~-------7--9--7~---------|
Db|-----------7--5----------------------------------|
Ab|-----------------7--5----------------------------|
Eb|-------------------------------------------------|

   GTR I,III
eb|-------------------------------------------------|
Bb|-------------------------------------------------|
Gb|--2-----2-----2-----2-----2-----2-----2-----2----|
Db|--2-----2-----2-----2-----2-----2-----2-----2----|
Ab|--0-----0-----0-----0-----0-----0-----0-----0----|
Eb|-------------------------------------------------|
  |
  |GTR II
eb|-------------------------------------------------|
Bb|-------------------------------------------------|
Gb|-------------------------------------------------|
Db|-------------------------------------------------|
Ab|-------------------------------------------------|
Eb|-------------------------------------------------|

   GTR I,III
eb|-------------------------------------------------|
Bb|-------------------------------------------------|
Gb|--5-----5-----5-----5-----5-----5-----5-----5----|
Db|--5-----5-----5-----5-----5-----5-----5-----5----|
Ab|--3-----3-----3-----3-----3-----3-----3-----3----|
Eb|-------------------------------------------------|
  |
  |GTR II
eb|-------------------------------------------------|
Bb|-------------------------------------------------|
Gb|-------------------------------------------------|
Db|-------------------------------------------------|
Ab|-------------------------------------------------|
Eb|-------------------------------------------------|

   GTR I,III
eb|-------------------------------------------------|
Bb|-------------------------------------------------|
Gb|--7-----7-----7-----7-----7-----7-----7-----7----|
Db|--7-----7-----7-----7-----7-----7-----7-----7----|
Ab|--5-----5-----5-----5-----5-----5-----5-----5----|
Eb|-------------------------------------------------|
  |
  |GTR II
eb|-------------------------------------------------|
Bb|-------------------------------------------------|
Gb|-------------------------------------------------|
Db|-------------------------------------------------|
Ab|-------------------------------------------------|
Eb|-------------------------------------------------|

   GTR I,III
eb|-------------------------------------------------|
Bb|-------------------------------------------------|
Gb|--2-----2-----2-----2----------------------------|
Db|--2-----2-----2-----2----------------------------|
Ab|--0-----0-----0-----0----------------------------|
Eb|--------------------------3h-5-----5--3h-5-----5-|
  |
  |GTR II
eb|-------------------------------------------------|
Bb|-------------------------------------------------|
Gb|-------------------------------------------------|
Db|-------------------------------------------------|
Ab|-------------------------------------------------|
Eb|-------------------------------------------------|

Chorus 3

   GTR I,III
eb|-------------------------------------------------|
Bb|-------------------------------------------------|
Gb|--2-----2-----2-----2-----2-----2-----2-----2----|
Db|--2-----2-----2-----2-----2-----2-----2-----2----|
Ab|--0-----0-----0-----0-----0-----0-----0-----0----|
Eb|-------------------------------------------------|
  |
  |GTR II (w. Flanger)
eb|-------------------------------------------------|
Bb|-------------10----------------------10----------|
Gb|--------9-----------9-----------9-----------9----|
Db|--7-----------------------7----------------------|
Ab|-------------------------------------------------|
Eb|-------------------------------------------------|

   GTR I,III
eb|-------------------------------------------------|
Bb|-------------------------------------------------|
Gb|--5-----5-----5-----5-----5-----5-----5-----5----|
Db|--5-----5-----5-----5-----5-----5-----5-----5----|
Ab|--3-----3-----3-----3-----3-----3-----3-----3----|
Eb|-------------------------------------------------|
  |
  |GTR II (w. Flanger)
eb|-------------------------------------------------|
Bb|-------------13----------------------13----------|
Gb|-------12----------12----------12----------12----|
Db|-10----------------------10----------------------|
Ab|-------------------------------------------------|
Eb|-------------------------------------------------|

   GTR I,III
eb|-------------------------------------------------|
Bb|-------------------------------------------------|
Gb|--7-----7-----7-----7-----7-----7-----7-----7----|
Db|--7-----7-----7-----7-----7-----7-----7-----7----|
Ab|--5-----5-----5-----5-----5-----5-----5-----5----|
Eb|-------------------------------------------------|
  |
  |GTR II (w. Flanger)
eb|-------------------------------------------------|
Bb|-------------15----------------------15----------|
Gb|-------14----------14----------14----------14----|
Db|-12----------------------12----------------------|
Ab|-------------------------------------------------|
Eb|-------------------------------------------------|

   GTR I,III
eb|-------------------------------------------------|
Bb|-------------------------------------------------|
Gb|--2-----2-----2-----2----------------------------|
Db|--2-----2-----2-----2----------------------------|
Ab|--0-----0-----0-----0----------------------------|
Eb|--------------------------3h-5--------3h-5-------|
  |
  |GTR II (w. Flanger)         PH.         PH.
eb|-------------------------------------------------|
Bb|-------------10----------------------------------|
Gb|--------9-----------9----------------------------|
Db|--7-----------------------5--7~-------5--7~------|
Ab|-------------------------------------------------|
Eb|-------------------------------------------------|

   GTR I,III
eb|-------------------------------------------------|
Bb|-------------------------------------------------|
Gb|--2-----2-----2-----2-----2-----2-----2-----2----|
Db|--2-----2-----2-----2-----2-----2-----2-----2----|
Ab|--0-----0-----0-----0-----0-----0-----0-----0----|
Eb|-------------------------------------------------|
  |
  |GTR II (w. Flanger)
eb|-------------------------------------------------|
Bb|-------------10----------------------10----------|
Gb|--------9-----------9-----------9-----------9----|
Db|--7-----------------------7----------------------|
Ab|-------------------------------------------------|
Eb|-------------------------------------------------|

   GTR I,III
eb|-------------------------------------------------|
Bb|-------------------------------------------------|
Gb|--5-----5-----5-----5-----5-----5-----5-----5----|
Db|--5-----5-----5-----5-----5-----5-----5-----5----|
Ab|--3-----3-----3-----3-----3-----3-----3-----3----|
Eb|-------------------------------------------------|
  |
  |GTR II (w. Flanger)
eb|-------------------------------------------------|
Bb|-------------13----------------------13----------|
Gb|-------12----------12----------12----------12----|
Db|-10----------------------10----------------------|
Ab|-------------------------------------------------|
Eb|-------------------------------------------------|

   GTR I,III
eb|-------------------------------------------------|
Bb|-------------------------------------------------|
Gb|--7-----7-----7-----7-----7-----7-----7-----7----|
Db|--7-----7-----7-----7-----7-----7-----7-----7----|
Ab|--5-----5-----5-----5-----5-----5-----5-----5----|
Eb|-------------------------------------------------|
  |
  |GTR II (w. Flanger)
eb|-------------------------------------------------|
Bb|-------------15----------------------15----------|
Gb|-------14----------14----------14----------14----|
Db|-12----------------------12----------------------|
Ab|-------------------------------------------------|
Eb|-------------------------------------------------|

   GTR I,III
eb|-------------------------------------------------|
Bb|-------------------------------------------------|
Gb|--2-----2-----2-----2----------------------------|
Db|--2-----2-----2-----2----------------------------|
Ab|--0-----0-----0-----0----------------------------|
Eb|--------------------------3h-5--------3h-5-------|
  |
  |GTR II (w. Flanger)         PH.         PH.
eb|-------------------------------------------------|
Bb|-------------10----------------------------------|
Gb|--------9-----------9----------------------------|
Db|--7-----------------------5--7~-------5--7~------|
Ab|-------------------------------------------------|
Eb|-------------------------------------------------|

   GTR I,III
eb|-------------------------------------------------|
Bb|-------------------------------------------------|
Gb|--2-----2-----2-----2-----2-----2-----2-----2----|
Db|--2-----2-----2-----2-----2-----2-----2-----2----|
Ab|--0-----0-----0-----0-----0-----0-----0-----0----|
Eb|-------------------------------------------------|
  |
  |GTR II (w. Flanger)
eb|-------------------------------------------------|
Bb|-------------10----------------------10----------|
Gb|--------9-----------9-----------9-----------9----|
Db|--7-----------------------7----------------------|
Ab|-------------------------------------------------|
Eb|-------------------------------------------------|

   GTR I,III
eb|-------------------------------------------------|
Bb|-------------------------------------------------|
Gb|--5-----5-----5-----5-----5-----5-----5-----5----|
Db|--5-----5-----5-----5-----5-----5-----5-----5----|
Ab|--3-----3-----3-----3-----3-----3-----3-----3----|
Eb|-------------------------------------------------|
  |
  |GTR II (w. Flanger)
eb|-------------------------------------------------|
Bb|-------------13----------------------13----------|
Gb|-------12----------12----------12----------12----|
Db|-10----------------------10----------------------|
Ab|-------------------------------------------------|
Eb|-------------------------------------------------|

   GTR I,III
eb|-------------------------------------------------|
Bb|-------------------------------------------------|
Gb|--7-----7-----7-----7-----7-----7-----7-----7----|
Db|--7-----7-----7-----7-----7-----7-----7-----7----|
Ab|--5-----5-----5-----5-----5-----5-----5-----5----|
Eb|-------------------------------------------------|
  |
  |GTR II (w. Flanger)
eb|-------------------------------------------------|
Bb|-------------15----------------------15----------|
Gb|-------14----------14----------14----------14----|
Db|-12----------------------12----------------------|
Ab|-------------------------------------------------|
Eb|-------------------------------------------------|

   GTR I,III
eb|-------------------------------------------------|
Bb|-------------------------------------------------|
Gb|--2-----2-----2-----2----------------------------|
Db|--2-----2-----2-----2----------------------------|
Ab|--0-----0-----0-----0----------------------------|
Eb|--------------------------3h-5--------3h-5-------|
  |
  |GTR II (w. Flanger)         PH.         PH.
eb|-------------------------------------------------|
Bb|-------------10----------------------------------|
Gb|--------9-----------9----------------------------|
Db|--7-----------------------5--7~-------5--7~------|
Ab|-------------------------------------------------|
Eb|-------------------------------------------------|

   GTR I,III
eb|-------------------------------------------------|
Bb|-------------------------------------------------|
Gb|--2-----2-----2-----2-----2-----2-----2-----2----|
Db|--2-----2-----2-----2-----2-----2-----2-----2----|
Ab|--0-----0-----0-----0-----0-----0-----0-----0----|
Eb|-------------------------------------------------|
  |
  |GTR II (w. Flanger)
eb|-------------------------------------------------|
Bb|-------------10----------------------10----------|
Gb|--------9-----------9-----------9-----------9----|
Db|--7-----------------------7----------------------|
Ab|-------------------------------------------------|
Eb|-------------------------------------------------|

   GTR I,III
eb|-------------------------------------------------|
Bb|-------------------------------------------------|
Gb|--5-----5-----5-----5-----5-----5-----5-----5----|
Db|--5-----5-----5-----5-----5-----5-----5-----5----|
Ab|--3-----3-----3-----3-----3-----3-----3-----3----|
Eb|-------------------------------------------------|
  |
  |GTR II (w. Flanger)
eb|-------------------------------------------------|
Bb|-------------13----------------------13----------|
Gb|-------12----------12----------12----------12----|
Db|-10----------------------10----------------------|
Ab|-------------------------------------------------|
Eb|-------------------------------------------------|

   GTR I,III
eb|-------------------------------------------------|
Bb|-------------------------------------------------|
Gb|--7-----7-----7-----7-----7-----7-----7-----7----|
Db|--7-----7-----7-----7-----7-----7-----7-----7----|
Ab|--5-----5-----5-----5-----5-----5-----5-----5----|
Eb|-------------------------------------------------|
  |
  |GTR II (w. Flanger)
eb|-------------------------------------------------|
Bb|-------------15----------------------15----------|
Gb|-------14----------14----------14----------14----|
Db|-12----------------------12----------------------|
Ab|-------------------------------------------------|
Eb|-------------------------------------------------|

Main Riff

Outro

   GTR I,III
eb|-------------------------------------------------|
Bb|-------------------------------------------------|
Gb|-------------------------------------------------|
Db|--2-----2-----3p-2--------2-----2-----3p-2-------|
Ab|--0-----0-----------------0-----0----------------|
Eb|-------------------------------------------------|
  |  .     .                 .     .  
  |GTR II
eb|-------------------------------------------------|
Bb|--------------6p-5--------------------6p-5-------|
Gb|-------------------------------------------------|
Db|--2-----2-----------------2-----2----------------|
Ab|--0-----0-----------------0-----0----------------|
Eb|-------------------------------------------------|
     .     .                 .     .  

   GTR I,III
eb|-------------------------------------------------|
Bb|-------------------------------------------------|
Gb|-------------------------------------------------|
Db|--2-----2-----3p-2-----------2--------3p-2--0h-2-|
Ab|--0-----0-----------------3-----3p-2-------------|
Eb|-------------------------------------------------|
  |  .     .                          
  |GTR II
eb|-------------------------------------------------|
Bb|--------------6p-5-----------5--------6p-5--3h-5-|
Gb|--------------------------5-----5p-4-------------|
Db|--2-----2----------------------------------------|
Ab|--0-----0----------------------------------------|
Eb|-------------------------------------------------|
     .     .                          

   GTR I,III
eb|-------------------------------------------------|
Bb|-------------------------------------------------|
Gb|-------------------------------------------------|
Db|-----2--------3p-2--0h-2-----2--------3p-2--0h-2-|
Ab|--3-----3p-2--------------3-----3p-2-------------|
Eb|-------------------------------------------------|
  |
  |GTR II
eb|-------------------------------------------------|
Bb|-----5--------6p-5--3h-5-----5--------6p-5--3h-5-|
Gb|--5-----5p-4--------------5-----5p-4-------------|
Db|-------------------------------------------------|
Ab|-------------------------------------------------|
Eb|-------------------------------------------------|

   GTR I,II,II
eb|-------------------------------------------------|
Bb|-------------------------------------------------|
Gb|-------------------------------------------------|
Db|--2-----2----------------------------------------|
Ab|--0-----0----------------------------------------|
Eb|-------------------------------------------------|
     .     .                          


| b  bend
| r  release bend
|trp triplet
|PH. pinch harmonic
|fbk feedback
| .  palm-mute
| /  slide up
| \  slide down
| h  hammer-on
| p  pull-off
| ~  vibrato
|(7) harmonic
| x  Mute note
===============================================================================

Tap to rate this tab
 
# A B C D E F G H I J K L M N O P Q R S T U V W X Y Z