Song name
# A B C D E F G H I J K L M N O P Q R S T U V W X Y Z

Concretes - Chosen One chords

Song: 	Chosen One
Artist: The Concretes
Album: 	In Colour (2006)
Tuning: Standard
Tabbed by: Bryan Oltman

Questions/comments/corrections: bryanoltman [at] gmail.com

Intro:
e|------------------------------------------------------|
B|------------------------------------------------------|
G|---------0--2--0-----0--------------------------------|
D|---0--2-----------2-----------------------------------|
A|------------------------------------------------------|
E|------------------------------------------------------|

e|------------------------------------------------------|
B|------------------------------------------------------|
G|---------0--2--0-----0-------4--0---------------------|
D|---0--2-----------2-----------------------------------|
A|------------------------------------------------------|
E|------------------------------------------------------|

e|------------------------------------------------------|
B|------------------------------------------------------|
G|---------0--2--0-----0-------2h4-0--------------------|
D|---0--2-----------2-----------------------------------|
A|------------------------------------------------------|
E|------------------------------------------------------|

e|------------------------------------------------------|
B|------------------------------------------------------|
G|---/7--5--4--2---0---2h4-2--0-------------------------|
D|------------------------------------------------------|
A|------------------------------------------------------|
E|------------------------------------------------------|

Verse/Chorus: G Em G Em G Em D

G                  Em
I don't know about falling in love

G                         Em
'cause it comes to an end I've been told

G                    Em
But when it comes to falling in love

D
It runs me over

Bridge:
e|-----------7-------------------8----------------------|
B|-----8-------8------------8------8--------------------|
G|--9-----9------9-------9-----9-----9------------------|
D|--9--------------------9------------------------------|
A|------------------------------------------------------|
E|------------------------------------------------------|
Tap to rate this tab
# A B C D E F G H I J K L M N O P Q R S T U V W X Y Z