Concretes - A Way Of Life tab

A Way of Life
The Concretes
Intro
by PRIYAN

e||------------------------------------------------------------------------|
B||------------------------------------------------------------------------|
G||----17b19--17--17b19--17-----14----12p10h12--------------10-------------|
D||------------------------------------------------10--12------------------|
A||------------------------------------------------------------------------|
E||------------------------------------------------------------------------|

e||------------------------------------------------------------------------|
B||------------------------------------------------------------------------|
G||--12/14--12--10--------------------10--12---15/17-14--12--12/14--12--10-|
D||------------------12--10----10h12---------------------------------------|
A||------------------------------------------------------------------------|
E||------------------------------------------------------------------------|

I LIKE TO GIVE A SHOUT OUT:
INDY, CREZ, ANDY, NEW CHARLES
PEACE OUT
Tap to rate this tab
 
# A B C D E F G H I J K L M N O P Q R S T U V W X Y Z