Song name
# A B C D E F G H I J K L M N O P Q R S T U V W X Y Z

Conflict - Conflict tab

Conflict - CONFLICT
Album: It's Time To See Who's Who Now

NOTE: Use your sense of hearing/timing to determine how many times to play each chord.

Intro (let ring)
E|-------------------|
B|-------------------|
G|---7---------------|
D|---7---------------|
A|---5---------------|
E|-------------------|

Verse:
E|---------------------------|
B|---------------------------|
G|---77---------4444444------|
D|---77-7-57-57-4444444------|
A|---55-7-57-57-2222222------|
E|------5-35-35--------------|

Chorus:
E|------------------------------------|
B|------------------------------------|
G|---99-----99-----99-----------------|
D|---99-99--99-99--99-99--77-9--------|
A|---77-99--77-99--77-99--77-9--------|
E|------77-----77-----77--55-7--------|


Bridge:
E|-------------------------|
B|-------------------------|
G|---4--6--7--9--7--6--4---|
D|---4--6--7--9--7--6--4---|
A|---2--4--5--7--5--4--2---|
E|-------------------------|
Tap to rate this tab
# A B C D E F G H I J K L M N O P Q R S T U V W X Y Z