Song name
# A B C D E F G H I J K L M N O P Q R S T U V W X Y Z

Conflict - These Colours Dont Run tab

Conflict - These Colours Don't Run
Album: Conclusion

NOTES: This song has a different structure than most other Conflict songs and I DID NOT
the correct number of times to play each chord. Instead, pay attention to the > and >>
to help you know when you play the chord for an extended amount of time. Listen to the 
and run through the tab a couple times and you'll get it.

Part A/intro
E|----------|----------|
B|----------|----------|
G|----------|-7777-----|
D|--5--878--|-7777-----|
A|--5--878--|-5555-----|
E|--3--656--|----------|

Part B
E|-----------------|
B|-----------------|
G|----------7777---|
D|---55555--7777---|
A|---55555--5555---|
E|---33333---------|

E|----------------|
B|----------------|
G|--5--579-975----|
D|--5--579-975----|
A|--3--357-753----|
E|----------------|

Part A, Part B, part A

E|-------------------------------------------------------------------|
B|-------------------------------------------------------------------|
G|---55555555555555555555555555555555555>>---------------------------|
D|---55555555555555555555555555555555555>>-6-5-6-5-777766665555-5----|
A|---33333333333333333333333333333333333>>-6-5-6-5-777766665555-5----|
E|------------—----------------------------4-3-4-3—555544443333-3----|
   “A black boy has just missed his bus…”

Part A, then break on “sexism reigns in man’s green word…”

Then part A, part B, part A


E|---------------------------------------------------------------------------|
B|---------------------------------------------------------------------------|
G|------5-8---------------5-8---------------5-8---------------5-8------------|
D|-4444-5-8-5555555--4444-5-8-5555555--4444-5-8-5555555--4444-5-8-55555555---|>
A|-4444-3-6-5555555--4444-3-6-5555555--4444-3-6-5555555--4444-3-6-55555555---|>
E|-2222-----3333333>-2222-----3333333>-2222-----3333333>-2222-----33333333---|>

E|-----------------------------|
B|-----------------------------|
G|---------3333-5555-7777------|
D|555555>--3333-5555-7777-5----|
A|555555>--1111-3333-5555-5----|
E|333333>-----------------3----|
  “Christ I’ve had enough of this…”
Tap to rate this tab
# A B C D E F G H I J K L M N O P Q R S T U V W X Y Z