Song name
# A B C D E F G H I J K L M N O P Q R S T U V W X Y Z

Converge - Runaway tab

Tabbed by: Cest_Baeu

Tuning: Drop C (Dropped A string  Step, Dropped D string 1 step)

Intro (x2):
C |-----------------------------------------------------|
Ab|--15b16----(18)b19-(18)b19-(18)b19-(18)b19-----------|
F |--17b18----(17)b18-(17)b18-(17)b18-(17)b18-----------|
C |-----------------------------------------------------|
G |-----------------------------------------------------|
C |-----------------------------------------------------|


C |---------------------------------------|
Ab|--13b14--13b14------14b15--14b15-------|
F |--15b16--15b16------16b17--16b17-------|
C |---------------------------------------|
G |---------------------------------------|
C |---------------------------------------|


C |-----------------------------------------------------|
Ab|--15b16----(18)b19-(18)b19-(18)b19-(18)b19-----------|
F |--17b18----(17)b18-(17)b18-(17)b18-(17)b18-----------|
C |-----------------------------------------------------|
G |-----------------------------------------------------|
C |-----------------------------------------------------|


C |---------------------------------------|
Ab|--20--20------21--21-------------------|
F |--17--17------18--18-------------------|
C |---------------------------------------|
G |---------------------------------------|
C |---------------------------------------|


SECTION 1:

C |-----------------------------------------------------|
Ab|-----------------------------------------------------|
F |----7--7--7--5/8--8--8--10/11--11--11--5/8--8--8-----|
C |----6--6--6--4/7--7--7--9/10---10--10--4/7--7--7-----|
G |----5--5--5--3/6--6--6--8/9----9---9---3/6--6--6-----|
C |-----------------------------------------------------|



C |-----------------------------------------------------|
Ab|-----------------------------------------------------|
F |----4---4---4--4---4---4--8---8---8--8---8---8-------|
C |----4---4---4--4---4---4--8---8---8--8---8---8-------|
G |----2---2---2--2---2---2--6---6---6--6---6---6-------|
C |-----------------------------------------------------|



C |-----------------------------------------------------|
Ab|-----------------------------------------------------|
F |----7--7--7--5/8--8--8--10/11--11--11--5/8--8--5-----|
C |----6--6--6--4/7--7--7--9/10---10--10--4/7--7--4-----|
G |----5--5--5--3/6--6--6--8/9----9---9---3/6--6--3-----|
C |-----------------------------------------------------|



C |-----------------------------------------------------|
Ab|-----------------------------------------------------|
F |----4---4---4--4---4---4-----------------------------|
C |----4---4---4--4---4---4--3---3---3--3---3---3-------|
G |----2---2---2--2---2---2--3---3---3--3---3---3-------|
C |--------------------------3---3---3--3---3---3-------|


SECTION 1b:

C |-----------------------------------------------------|
Ab|-----------------------------------------------------|
F |----7--7--7--5/8--8--8--10/11--11--11--5/8--8--8-----|
C |----6--6--6--4/7--7--7--9/10---10--10--4/7--7--7-----|
G |----5--5--5--3/6--6--6--8/9----9---9---3/6--6--6-----|
C |-----------------------------------------------------|



C |-----------------------------------------------------|
Ab|-----------------------------------------------------|
F |----4---4---4--4---4---4--8---8---8--8---8---8-------|
C |----4---4---4--4---4---4--8---8---8--8---8---8-------|
G |----2---2---2--2---2---2--6---6---6--6---6---6-------|
C |-----------------------------------------------------|



C |-----------------------------------------------------|
Ab|-----------------------------------------------------|
F |----7--------5-8--------10-11----------5-8-----5-----|
C |----6--------4-7--------9-10-----------4-7-----4-----|
G |----5--------3-6--------8-9------------3-6-----3-----|
C |-----------------------------------------------------|



C |-----------------------------------------------------|
Ab|-----------------------------------------------------|
F |----4---4---4--4---4---4-----------------------------|
C |----4---4---4--4---4---4--3---3---3--3---3---3-------|
G |----2---2---2--2---2---2--3---3---3--3---3---3-------|
C |--------------------------3---3---3--3---3---3-------|


SECTION 2(x2):

C |------------|
Ab|----5-------|
F |----7-------|
C |----7-------|
G |----5-------|
C |----0-------|



C |-----------------------------------------------------|
Ab|--------13-----13--15--16-16b(18)-16--15-------------|
F |----13------13----------------------------15---------|
C |-----------------------------------------------------|
G |-----------------------------------------------------|
C |-----------------------------------------------------|



C |------------|
Ab|------------|
F |------------|
C |----6-------|
G |----6-------|
C |----6-------|



C |-------------------------------------------10--------|
Ab|--------12-----12trem.(13)-----------8-----[8]-------|
F |----12------12--------------------7-----7--[7]-------|
C |-----------------------------------------------------|
G |-----------------------------------------------------|
C |-----------------------------------------------------|

[8][7]- harmony performed live.

SECTION 3(x2):

C |-----------------------------------------------------|
Ab|-----------------------------------------------------|
F |-----------------------------------------------------|
C |--5------6---8--9------8---6--5------6---8--9-----6--|
G |--x------x---x--x------x---x--x------x---x--x-----x--|
C |--5------5---5--5------8---6--5------6---8--9-----6--|

Repeat SECTION 1
Repeat SECTION 1b
Repeat SECTION 2
Repeat SECTION 3

SECTION 4(2x)

C |-----------------------------------------------------|
Ab|-----------------------------------------------------|
F |-----------------------------------------------------|
C |--2------3---5--6------5---3--2------3---5--6-----3--|
G |--x------x---x--x------x---x--x------x---x--x-----x--|
C |--2------3---5--6------5---3--2------3---5--6-----3--|

END

Tablature Legend
----------------

TP  - trem. picking
b   - bend
/\  - slide into or out of (from/to "nowhere")

Please rate & comment
Tap to rate this tab
 
# A B C D E F G H I J K L M N O P Q R S T U V W X Y Z