Song name
# A B C D E F G H I J K L M N O P Q R S T U V W X Y Z

Corneille - Reposez En Paix tab

----------------------------------------------------------------------------
			     REPOSEZ EN PAIX - Corneille
----------------------------------------------------------------------------
Tabbed by: Kengus

>>Here's a great song by a great French singer/songwriter. Nevermind the chords in the 
(I added them "just in case"), just play the tabs. Try it out.<<

Standard tuning

INTRO/VERSE:
    D#m    D#mM7/D  D#m7/C#  D#m6/C  Bm   AM7    F#m    GM7
|--------------------------------------------------------------|
|------4-------4-------4-------4-----3-----2------------3------|
|-----3-3-----3-3-----3-3-----3-3------4-----1-----2------4----|
|----4-------4---4---4-------4---4------4-----2------4-----4---|
|--6-------5--------4------3---------2-----0-------------------|
|------------------------------------------------2------3------|
         Esus4         E
--------------0--------0---|
-----3-----------------0---|
----4-------2-------2--1---|
---4------2-------2----2---|
-----------------------2---|
--3-----0-------0------0---|

D#m          D#mM7/D
   Reposez en paix
D#m7/C#        D#m6/C
   Vos amis du Nord m’ont soigné
Bm      AM7          F#m     GM7
Tout va bien, j’ai manqué de rien
Esus4	      E
Vraiment je vais bien

CHORUS
A
  Tu peux dormir en paix, Maman
F#m
  j’ai trouvé ta belle-fille, Maman
DM7		               E  Esus4  E
  Je serai avec elle comme père avec toi, maman
       A               Asus2
A part ça, j’ai dîné à l’Élysée, maman
F#m
  j’ai même chanté avec Charles, maman
C#m                      Bm
et tout ça les pieds sur terre
               DM7  E
je tient ça de toi maman

D                A                 D  Dsus2 D      E
Père, tout comme toi, je rêve de refaire le monde
F#m              C#m             Dm
père, tout comme toi, je rêve un peu de trop
        Bb        C               D
mais ta fin me réveille dès qu’il faut

D#m          D#mM7/D
   Reposez en paix,
D#m7/C#        D#m6/C
   des amis du nord m’ont aimé
Bm      AM7            F#m           GM7
tout va bien dès qu’il chantent mes refrains
Esus4	          E
oui vraiment je vais bien

CHORUS

D                A                 D  Dsus2 D      E
Père, tout comme toi, je rêve de refaire le monde
F#m              C#m             Dm
père, tout comme toi, je rêve un peu de trop
        Bb        C               D
mais ta fin me réveille dès qu’il faut
Bb        C        D Dsus2 D
Oo-ooh-oo Ooh-ooh-oo Ooh x3
Tap to rate this tab
 
# A B C D E F G H I J K L M N O P Q R S T U V W X Y Z