Song name
# A B C D E F G H I J K L M N O P Q R S T U V W X Y Z

Corneille - Parce Quon Vient De Loin tab

Highlighted       Show chord diagrams
-------------------------------------------------------------------------
PARCE QUON VIENT DE LOIN - Corneille
-------------------------------------------------------------------------
Tabbed by: Kengus

This is my version. Try it out.

Standard tuning

INTRO:
  B7sus2     Em     F#m7    B7sus2    Em7      F#m7
e|---2-----2------0------2----2-----2--------7-----|
B|-2------2-----------------2------2------7h8--10--|
G|-2-----2------0------2----2-----2------7------9--|
D|-4----4------2------2-----4----4------9------11--|
A|-2---2--------------------2---2-----/7--------9--|
E|-----------0------2------------------------------|

VERSE:
     Bm      G          Em7     A
e|--------2--------3---------7-------5---|
B|---2h3-----3-------3--7h8-7---5--------|
G|---4---4---4---4------7-------6--6-----|
D|---4-------5--5-------7h9-----7-7------| x7, then Fm, G and Asus2
A|---2---------------5--7----------------|              into chorus
E|-----------3------------------5--------|

VERSE1
                Bm            G
Nous sommes nos propres pres
   Em7                  A                     Bm  G     Em7  A
Si jeunes et pourtant si vieux, a me fait penser....tu sais
                Bm            G
Nous sommes nos propres mres
   Em7           A                  Bm      G  Em7  A
Si jeunes et si srieux, mais a va changer
Bm       G                  Em7               A
On passe le temps  faire des plans pour le lendemain
        Bm     G          Em7                A
Pendant que le beau temps passe et nous laisse vide et incertain
   Bm        G          Em7               A
On perd trop de temps  suer et s'corcher les mains
          F#m                                G
A quoi a sert si on n'est pas sr de voir demain
  A6
A rien

      CHORUS
               Bm      G                  Em7   A6
      Alors on vit chaque jour comme le dernier
                Bm        G                     Em7  A6
      Et vous feriez pareil si seulement vous saviez
                 D            G                 Em7  A6
      Combien de fois la fin du monde nous a frls
               Bm       G                   Em7
      Alors on vit chaque jour comme le dernier
      A6                    Bm  G  Em7  A6  Bm  G  Em7  A
      Parce qu'on vient de loin

VERSE2
          Bm             G
Quand les temps sont durs
         Em7                  A               Bm   G  Em7  A
On se dit: "Pire que notre histoire n'existe pas"
            Bm          G
Et quand l'hiver perdure
          Em7            A                     Bm  G 
On se dit simplement que la chaleur nous reviendra
           Em7          A
Et c'est facile comme a
Bm    G                    Em7               A
Jour aprs jour, on voit combien tout est phmere
      Bm      G            Em7(pause)
Alors mme en amour, j'aimerai chaque reine

Comme si c'tait la dernire
Bm        G                       Em7                A
L'air est trop lourd, quand on ne vit que sur des prires
         F#m
Moi je savoure chaque instant
                  G             A6
Bien avant que s'teigne la lumire

      CHORUS
      Alors on vit chaque jour comme le dernier
      Et vous feriez pareil si seulement vous saviez
      Combien de fois la fin du monde nous a frls
      Alors on vit chaque jour comme le dernier
      Parce qu'on vient de loin

INTRO

INTERLUDE
Bm7   G6
Jour aprs jour
         Em7               A6
On voit combien tout est phmre
        F#m                  F#m F#m      G
Alors vivons pendant qu'on peut encore le faire
    A6
Mes chers

      CHORUS x2
      Alors on vit chaque jour comme le dernier
      Et vous feriez pareil si seulement vous saviez
      Combien de fois la fin du monde nous a frls
      Alors on vit chaque jour comme le dernier
      Parce qu'on vient de loin

Bm7+ Gadd9 Em7 A                    Bm7+ Gadd9 Em7 A
               Parce qu'on vient de loin x5


 
  A6   Gadd9   Bm7+
--0--  --5--  --5--
--2--  --0--  --3--
--2--  --0--  --2--
--4--  --0--  --4--
--0--  --2--  --2--
--x--  --3--  --x--
======================================================
Tap to rate this tab
# A B C D E F G H I J K L M N O P Q R S T U V W X Y Z