Song name
# A B C D E F G H I J K L M N O P Q R S T U V W X Y Z

Corrosion Of Conformity - Seven Days tab

 Hi there, this is my first tab, because i was infuriated over not finding
 one for this song hope you make it sound okay for you as it does to me.

tuning: a whole step down ( dont mind that it says EADGBE in the tabs)

this song is easy to play but it sounds best if you use what i call the
"southern style", where you hold your fingers close to the strings so you
allmost get that overtone and you can feel it is just waiting beneath the
melody, and it allso gets a closer sound if you dont use your pinky, dunno
why. Enjoy the tab, it might be wrong, and it might be right, but this is
how i get it to sound good.


Intro/Chorus
E---------------------------------|
B---------------------------------|
G---------------------------------|
D---------------------------------|
A---5--(5)--------1--3--3^--1-----|
E---3--(3)--1--3-----1------------|  play this 8 times




E----------------------------------------------|
B----------------------------------------------|
G----------------------------------------------|
D-----------5^--3--3--5^--3--3--5^-------------|
A---5--(5)--3^--1--1--3^--1--1--3^--5--5-------|
E---3--(3)--------------------------3--3-------|
                                                     play 3 times
E-----------------------------------------|
B-----------------------------------------|
G-----------------------------------------|
D-------5---------5---------5-------------| ( this line part sounds crap when
A--3h5--3----3h5--3----3h5--3--5--5-------|   you play it alone, but it fits
E------------------------------3--3-------|   when you put it together with the rest)



E----------------------------------------------|
B----------------------------------------------|
G----------------------------------------------|
D-----------5^--3--3--5^--3--3--5^-------------|
A---5--(5)--3^--1--1--3^--1--1--3^--5--5-------|
E---3--(3)--------------------------3--3-------|

E---------------------------------|
B---------------------------------|
G---------------------------------|
D---------------------------------|
A-12/0--5--(5)--------1--3--3^--1-|
E-12/0--3--(3)--1--3-----1--------| and then continue the chorus like shown on the top.



solo: just play some random pentatonic licks and it should do well ;)
Tap to rate this tab
# A B C D E F G H I J K L M N O P Q R S T U V W X Y Z