Song name
# A B C D E F G H I J K L M N O P Q R S T U V W X Y Z

Cradle Of Filth - Gilded Cunt tab

Intro/Chorus
D-----------------------------------------------------------|
A-----------------------------------------------------------|
F-----------------------------------------------------------|
C-3-3-444444-3-3-444446-3-3-444444-3-3-66554  Both Guitars--| 4X
G-3-3-444444-3-3-444446-3-3-444444-3-3-66554----------------|
C-3-3-444444-3-3-444446-3-3-444444-3-3-66554----------------|
      ......     .....      ......     .... PM
Verse
D-------------------------------------------------|
A-------------------------------------------------|
F-------------------------------------------------|
C---------------------------5x6x5x6 Both Guitars--| 4X
G-------555--------8--------3x4x3x4---------------|
C-555555---555-666-8-0343-------------------------|
                     ....          PM
Chorus
D-----------------------------------------------------------|
A-----------------------------------------------------------|
F-----------------------------------------------------------|
C-3-3-444444-3-3-444446-3-3-444444-3-3-66554  Both Guitars--| 2X
G-3-3-444444-3-3-444446-3-3-444444-3-3-66554----------------|
C-3-3-444444-3-3-444446-3-3-444444-3-3-66554----------------|
      ......     .....      ......     .... PM
Verse
D-------------------------------------------------|
A-------------------------------------------------|
F-------------------------------------------------|
C---------------------------5x6x5x6 Both Guitars--| 2X
G-------555--------8--------3x4x3x4---------------|
C-555555---555-666-8-0343-------------------------|
                     ....          PM
Bridge
Guitar 1
D-----------------------------------------------------------|
A-----------------------------------------------------------|
F-----------------------------------------------------------|
C-0--2-3-0--2-3---3-2---3-2-0--2-3-0--2-3/5---5-3-2-3-3H5P3-|
G--------------0-----1---------------------5----------------|
C-----------------------------------------------------------|
Guitar 2
D-------------------------------------------------------------------------|
A-------------------------------------------------------------------------|
F------------------------------------------12--12-------------------------|
C-12--14-15-12--14-15-151412-151412-151412---12--12--14-15-12--14-15/17---|
G----------------------------------------------------------------------17-|
C-------------------------------------------------------------------------|
(continued)
C-17-15-14-15--15H17P15-

Breakdown
C-------8-------8-------8-----------------------8-------8-------8----------|
G-------8-------8-------8-6P5-5P4-3/1-1/2-------8-------8-------8-66665555-|
C-9999998-9999998-9999998-----------------9999998-9999998-9999998----------|
Both Guitars

Interlude
C-4-----5-4-----5-4-----5-8P7 8P7/5P4 5P4---------------|
G-4-----5-4-----5-4-----5-8P7-8P7/5P4-5P4 Both Guitars--| 4X
C-4-44445-4-44445-4-44445-8P7-8P7/5P4-5P4---------------|
    ....    ....    ....                 PM
Chorus
D-----------------------------------------------------------|
A-----------------------------------------------------------|
F-----------------------------------------------------------|
C-3-3-444444-3-3-444446-3-3-444444-3-3-66554  Both Guitars--| 2X
G-3-3-444444-3-3-444446-3-3-444444-3-3-66554----------------|
C-3-3-444444-3-3-444446-3-3-444444-3-3-66554----------------|
      ......     .....      ......     .... PM
Post Chours
C-3-6-55-44-4H5P4-3---------------|
G-3-6-55-44-4H5P4-3 Both Guitars--| 4X
C-3-6-55-44-4H5P4-3---------------|


Verse
D-------------------------------------------------|
A-------------------------------------------------|
F-------------------------------------------------|
C---------------------------5x6x5x6 Both Guitars--| 2X
G-------555--------8--------3x4x3x4---------------|
C-555555---555-666-8-0343-------------------------|
                     ....          PM
Bridge
Guitar 1
D-----------------------------------------------------------|
A-----------------------------------------------------------|
F-----------------------------------------------------------|
C-0--2-3-0--2-3---3-2---3-2-0--2-3-0--2-3/5---5-3-2-3-3H5P3-|
G--------------0-----1---------------------5----------------|
C-----------------------------------------------------------|
Guitar 2
D-------------------------------------------------------------------------|
A-------------------------------------------------------------------------|
F------------------------------------------12--12-------------------------|
C-12--14-15-12--14-15-151412-151412-151412---12--12--14-15-12--14-15/17---|
G----------------------------------------------------------------------17-|
C-------------------------------------------------------------------------|
(continued)
C-17-15-14-15--15H17P15-

Breakdown
C-------8-------8-------8-----------------------8-------8-------8----------|
G-------8-------8-------8-6P5-5P4-3/1-1/2-------8-------8-------8-66665555-|
C-9999998-9999998-9999998-----------------9999998-9999998-9999998----------|
the first half Guitar 2 only plays the 8's and the fill

Interlude
C-4-----5-4-----5-4-----5-8P7 8P7/5P4 5P4---------------|
G-4-----5-4-----5-4-----5-8P7-8P7/5P4-5P4 Both Guitars--| 4X
C-4-44445-4-44445-4-44445-8P7-8P7/5P4-5P4---------------|
    ....    ....    ....                 PM

Chorus
D-----------------------------------------------------------|
A-----------------------------------------------------------|
F-----------------------------------------------------------|
C-3-3-444444-3-3-444446-3-3-444444-3-3-66554  Both Guitars--| 2X
G-3-3-444444-3-3-444446-3-3-444444-3-3-66554----------------|
C-3-3-444444-3-3-444446-3-3-444444-3-3-66554----------------|
      ......     .....      ......     .... PM
Post Chours
C-3-6-55-44-4H5P4-3---------------|
G-3-6-55-44-4H5P4-3 Both Guitars--| 4X
C-3-6-55-44-4H5P4-3---------------|

Outro is the post chours palm muted and tremelo picked.

   And thats it, Im not saying its 100% but I will say its the way I play it and will 
garuntee its the most accurate on site.
Tap to rate this tab
 
# A B C D E F G H I J K L M N O P Q R S T U V W X Y Z