Song name
# A B C D E F G H I J K L M N O P Q R S T U V W X Y Z

Crazy Town - Change tab

2 Guitars
Drop D

Guitar 1 Intro/verse:   
E--5---------|--3-5-----------|-55-5--------------|-1------------|
B------------|--------------3-|------88-88-88-6-5-|-----1-----3--|
G------5-7---|------5-----5---|-------------------|--------------|
D----7-------|--3-------5-----|-------------------|---3-----5----|
A--5---------|--------3-------|-5-----------------|-1-----3------|
D------------|----------------|-------------------|--------------|

Guitar 2: joins from this point in the verse
E----------|---------------|--------|--------------|
B----------|---------------|--------|--------------|
G------5---|------5------5-|-----5--|------3-----5-|
D----7-----|----7------5---|---7----|----3-----5---|
A--5-------|--8------3-----|-5------|--1-----3-----|
D----------|---------------|--------|--------------|

Chorus: Both guitars
E-----------------------------|
B-----------------------------|
G-----------------------------|
D--0---3---5---0---8---3---0--| x2
A--0---3---5---0---8---3---0--|
D--0---3---5---0---8---3---0--|

Verse 2 - begin guitar 2 on its own
E----------|---------------|--------|------------|
B----------|---------------|--------|------------|
G------5---|------5------5-|-----5--|------------|
D----7-----|----7------5---|---7----|------------|
A--5-------|--8------3-----|-5------|------------|
D----------|---------------|--------|------------|

Chorus: Both guitars
E-----------------------------|
B-----------------------------|
G-----------------------------|
D--0---3---5---0---8---3---0--| x2
A--0---3---5---0---8---3---0--|
D--0---3---5---0---8---3---0--|

Rhythm guitar
E-------------------|
B-------------------|
G--7----------------|
D--7---8---5---3----| x3
A--5---8---5---3----|
D------8---5---3----| 

E---------------|
B---------------|
G--7------------|
D--7---8---3----|4th time
A--5---8---3----|
D------8---3----|

Lead Guitar
E---------------------------------------------------|
B---------------------------------------------------|
G--7-77-77-/-8-88-88-/-10-1010-1010-/-12-1212-1212--|
D---------------------------------------------------|
A--7-77-77-/-8-88-88-/-10-1010-1010-/-12-1212-1212--|
D---------------------------------------------------|

E-------------------------------------------|
B-------------------------------------------|
G--7-77-77-/-8-88-88-\-5-55-55-\-3-33-33----|
D-------------------------------------------|
A--7-77-77-/-8-88-88-\-5-55-55-\-3-33-33----|
D-------------------------------------------|

E---------------------------------------------------|
B---------------------------------------------------|
G--7-77-77-/-8-88-88-/-10-1010-1010-/-12-1212-1212--|
D---------------------------------------------------|
A--7-77-77-/-8-88-88-/-10-1010-1010-/-12-1212-1212--|
D---------------------------------------------------|

E--------------------------|
B--------------------------|
G--7-77-77-/-8-88-88-\-3---|
D--------------------------|
A--7-77-77-/-8-88-88-\-3---|
D--------------------------|

Verse 3(Guitar 1)
E--5-----|--3--5-----|--55-5--------------|-1-------------|
B--------|-----------|-------88-88-88-6-5-|-----1-----5---|
G-----7--|-----------|7-------------------|---------------|
D--------|-----------|--------------------|---3-----5-----|
A--------|-----------|--------------------|-1-----3-------|
D--------|-----------|--------------------|---------------|

Chorus: Both guitars
E-----------------------------|
B-----------------------------|
G-----------------------------|
D--0---3---5---0---8---3---0--| x2
A--0---3---5---0---8---3---0--|
D--0---3---5---0---8---3---0--|

Outro (Same As Intro)
Tap to rate this tab
# A B C D E F G H I J K L M N O P Q R S T U V W X Y Z