Crazy Town - Black Cloud tab

Artist : Crazy Town
Song   : Black Cloud
Tuning : Drop D


(00:10 - 00:26) with distortion  x2
|--12----------------|
|------13------------|
|---------------12---|
|--------------------|
|--------------------|
|--------------------|


(00:30 - 00:50) clean  x2
|-----------------------------|
|-----------------------------|
|--7(x8)---9(x8)---4(x16)-----|
|-----------------------------|
|-----------------------------|
|-----------------------------|


(00:50 - 01:09) distortion (palm mute)  x2
|--------------------------------------------------|
|--------------------------------------------------|
|--------------------------------------------------|
|--------------------------------------------------|
|--3--3--3--3--5--5--5--5--0--0--0--0--0--0--0--0--|
|--3--3--3--3--5--5--5--5--0--0--0--0--0--0--0--0--|


(01:10 - 01:29) with distortion  x2
|--12----------------|
|------13------------|
|---------------12---|
|--------------------|
|--------------------|
|--------------------|


(01:30 - 01:50) clean  x2
|-----------------------------|
|-----------------------------|
|--7(x8)---9(x8)---4(x16)-----|
|-----------------------------|
|-----------------------------|
|-----------------------------|


(01:50 - 02:30) distortion x3
|------------------------------------------------------------------|
|------------------------------------------------------------------|
|------------------------------------------------------------------|
|--3-3-3-3-3-3-3-3-5-5-5-5-5-5-5-5-0-0-0-0-0-0-0-0-0-0-0-0-0-0-0-0-|
|--3-3-3-3-3-3-3-3-5-5-5-5-5-5-5-5-0-0-0-0-0-0-0-0-0-0-0-0-0-0-0-0-|
|--3-3-3-3-3-3-3-3-5-5-5-5-5-5-5-5-0-0-0-0-0-0-0-0-0-0-0-0-0-0-0-0-|

then...   
|--------------------------------------------------------------|
|--------------------------------------------------------------|
|--------------------------------------------------------------|
|--3-3-3-3-3-3-3-3-5-5-5-5-5-5-5-5-0-0-0-0-0-0-0-0--0--0--0--0-|
|--3-3-3-3-3-3-3-3-5-5-5-5-5-5-5-5-0-0-0-0-0-0-0-0--0--0--0--0-|
|--3-3-3-3-3-3-3-3-5-5-5-5-5-5-5-5-0-0-0-0-0-0-0-0--0--0--0--0-|


(02:30 - 03:10) clean  x4
|-----------------------------|
|-----------------------------|
|--7(x8)---9(x8)---4(x16)-----|
|-----------------------------|
|-----------------------------|
|-----------------------------|


(03:10 - 03:50) distortion x3
|------------------------------------------------------------------|
|------------------------------------------------------------------|
|------------------------------------------------------------------|
|--3-3-3-3-3-3-3-3-5-5-5-5-5-5-5-5-0-0-0-0-0-0-0-0-0-0-0-0-0-0-0-0-|
|--3-3-3-3-3-3-3-3-5-5-5-5-5-5-5-5-0-0-0-0-0-0-0-0-0-0-0-0-0-0-0-0-|
|--3-3-3-3-3-3-3-3-5-5-5-5-5-5-5-5-0-0-0-0-0-0-0-0-0-0-0-0-0-0-0-0-|

then...   
|--------------------------------------------------------------|
|--------------------------------------------------------------|
|--------------------------------------------------------------|
|--3-3-3-3-3-3-3-3-5-5-5-5-5-5-5-5-0-0-0-0-0-0-0-0--0--0--0--0-|
|--3-3-3-3-3-3-3-3-5-5-5-5-5-5-5-5-0-0-0-0-0-0-0-0--0--0--0--0-|
|--3-3-3-3-3-3-3-3-5-5-5-5-5-5-5-5-0-0-0-0-0-0-0-0--0--0--0--0-|


(03:50 ---> ) with distortion  
|--12----------------|
|------13------------|
|---------------12---|
|--------------------|
|--------------------|
|--------------------|






Tap to rate this tab
 
# A B C D E F G H I J K L M N O P Q R S T U V W X Y Z