Song name
# A B C D E F G H I J K L M N O P Q R S T U V W X Y Z

Crazy Town - Beautiful tab

Hey its Jake Ness witha new tab this song is pritty sick in my opinion.

-Intro-
(Also Played threw the chorus)
e|--------------------------------------|
B|--------------------------------------|
G|---8-10------10------8----------------|
D|----------11-------9------------------|
A|-6--------------------------9--9/11---|
E|--------9-------7-------7------7/9----|

-Verse-
   D#m7  E   C#  B
e|---x---x---9---7-----------------------|
B|---7---11--9---7-----------------------|
G|---6---11--10--8-----------------------|
D|---9---11--11--9-----------------------|
A|---6---9---11--9-----------------------|
E|---x---x---9---7-----------------------|

-Chorus-
(If u want the Chords)
(   D#m  C#  B  B/C#)
e|-----------------------------------------|
B|-----------------------------------------|
G|---9---10--8--8-8--8/10------------------|
D|---9---11--9--9-9--9/11------------------|
A|---6---11--9--9-9--9/11------------------|
E|-------9---7--7-7--7/9-------------------|

Just Figured it out 10 minutes ago haha shootz

X/X- Slide
Tap to rate this tab
 
# A B C D E F G H I J K L M N O P Q R S T U V W X Y Z