Song name
# A B C D E F G H I J K L M N O P Q R S T U V W X Y Z

Cream - From Four Until Late tab

Highlighted       Show chord diagrams
From Four Until Late
Fresh Cream
1966
Cream(Robert Johnson)
Guitarist Eric Clapton

This one is easy but still a great song.



Intro:
 C7   F  Ab6     C     C  C7 F  Ab6 C    G7
|-0---1---1-1-1---0-----0--0--1--1---0----1--|
|-1---1---1-1-1---1-----1--1--1--1---1----0--|
|-3---2---1-1-1---0-----0--3--2--1---0----0--|
|-2---3---1-1-1---2-----2--2--3--1---2----0--|
|-3---------------3-----3--3---------3----2--|
|-----------------------------------------3--|



C                          F                      C     C7  
From four until late I was wringing my hands and crying.
F                                                 C     A7 
From four until late I was wringing my hands and crying.
    D7                          G7               C
I believe to my soul that your daddy's Gulfport bound.



(This verse is in the Robert Johnson version only)
C                            F               C    C7
From Memphis to Norfolk is a thirty six hour ride
F                                            C    A7
From Memphis to Norfolk is a thirty six hour ride
    D7                 G7           C
Man like a prisoner, can't be satisfied


C                          F                        C    C7
From four until late, she made me a no good barroom clown.
F                                                   C    A7
From four until late, she made me a no good barroom clown.
     D7                       G7                                C
You know she won't do nothing but tear a good man's reputation down.


C                           F                                   C    C7
A woman is like a dresser, some man always running through its drawers.
F                                                               C    A7
A woman is like a dresser, some man always running through its drawers.
      D7                   G7              C
She cause so many men to wear an apron overall.



|----------------------------------------------------------------------------------|
|-The Harmonica solo can be replaced with a good improvised guitar solo in F or C.-|
|-For some good box scales, check out my "Politician" Tab as well.-----------------|
|-It is also by cream.-------------------------------------------------------------|
|----------------------------------------------------------------------------------|


C                         F                 C    C7
When I leave this town I will bid you fare farewell.
F                                           C    A7
When I leave this town I will bid you fare farewell.
     D7                          G7                         C
And when I return again, you'll have a great long story to tell.


 C7   F  Ab6     C     C  C7 F  Ab6 C    G7
|-0---1---1-1-1---0-----0--0--1--1---0----1--|
|-1---1---1-1-1---1-----1--1--1--1---1----0--|
|-3---2---1-1-1---0-----0--3--2--1---0----0--|
|-2---3---1-1-1---2-----2--2--3--1---2----0--|
|-3---------------3-----3--3---------3----2--|
|-----------------------------------------3--|

Yes, I have advertised one of my tabs in another tab. don't cry about it, just go to it:D

Tap to rate this tab
# A B C D E F G H I J K L M N O P Q R S T U V W X Y Z