Song name
# A B C D E F G H I J K L M N O P Q R S T U V W X Y Z

Cream - Im So Glad tab

Cream
I'm So Glad - Fresh Cream
Tabbed by Gonseg

intro x2 (and bridge):

e||----------0---------0-----0---0---------0-----0---0---------0-----0---0-------0--|
B||--------------0-------0-----------0-------0-----------0-------0---------0--------|
G||--1-2-3-4-------4-------4---3-------3-------3---2-------2-------2---1-----1------|
D||---------------------------------------------------------------------------------|
A||--2-3-4-5---5-----5---------4---4-----4---------3---3-----3---------2-------2----|
E||---------------------------------------------------------------------------------|


chorus:

e||-------------------------------------------------------|
B||-------------------------------------------------------|
G||--9-9-9-9-9-9--7-7-7-7-7-7--9-9-9--7-7-7--9-9-9-9-9-9--|
D||--9-9-9-9-9-9--7-7-7-7-7-7--9-9-9--7-7-7--9-9-9-9-9-9--|
A||--7-7-7-7-7-7--5-5-5-5-5-5--7-7-7--5-5-5--7-7-7-7-7-7--|
E||-------------------------------------------------------|


verse:

      I don't know what to do, I don't know what to do, I dont know what to do.

e||---0-------------------0----0-------------------0----0-------------------0-----|
B||---0-------------------0----0-------------------0----3------0------------0-----|
G||---1-------------------1----2-------------------2----2------2------------1-----|
D||---2-------------------2----2-------------------2----0------2------------2-----|
A||---2-------------------2----2-------------------2-----------0------------2-----|
E||---0-------------------0----0-------------------0------------------------0-----|


solo:

e||--------------------------------------------------------------------------------|
B||--------------------------------------------------------------------------------|
D||------------------------12r(14)-12r(13)~--11b(13)-9~--7h9p7-7h9p7--6h7p6-4h6p4--|
G||--12h14-12h14p12h14\17----------------------------------------------------------|
A||--------------------------------------------------------------------------------|
E||--------------------------------------------------------------------------------|


e||-----------------------------------------------------------------------------------|
B||-----------------------------------------------------------------------------------|
G||-----------------------------------------------------------------------------------|
D||--6h7p6h7\9-9h11p9h11\12--12h14p12h14\18-14-12-11h12p11\9--6h7p6h7\9-9h11p9h11\12--|
A||-----------------------------------------------------------------------------------|
E||-----------------------------------------------------------------------------------|


e||-------------------------------------------------------------------------------|
B||-------------------------10b(11)\12-12b(14)-12b(14)--12------------------------|
G||--12r\14-13---------------------------------------------14-12-14---------------|
D||------------14-12-14-12------------------------------------------14--12h14p12--|
A||-------------------------------------------------------------------------------|
E||-------------------------------------------------------------------------------|


e||--------------------------------------------------------------------------|
B||--------------------------------------------------------------------------|
G||--------------------------------------------------------------------------|
D||--6h7p6h7\9-9h11p9h11\12--12h14p12h14-12h14p12h14-12h14p12\11-11h12p11\9--|
A||--------------------------------------------------------------------------|
E||--------------------------------------------------------------------------|


e||-----------------------------------------------------------------------------------------------|
B||-----------------------------------------------------------------------------------------------|
G||-----------------------------------------------------------------------------------------------|
D||--7h9p7h9p7h9p7-6h7p6h7\9--6h7p6-6h7p6-6h7p6-6h7\9\7\6--11b-7h9p7-11b-7h9p7-11b-7h9p7-7h9p7-9--|
A||-----------------------------------------------------------------------------------------------|
E||-----------------------------------------------------------------------------------------------|
Tap to rate this tab
# A B C D E F G H I J K L M N O P Q R S T U V W X Y Z