Song name
# A B C D E F G H I J K L M N O P Q R S T U V W X Y Z

Creed - Overcome tab

Song           : Overcome
Album          : Full Circle
Band           : Creed
Transcribed By : Brandon Llapitan
Facebook       : bp_llapitan@yahoo.com
Tuning         : Drop-B
Inflections    : () = Artificial Harmonics
                  b = bend
                  ~ = Let Ring/Vibrato
                  / = slide
                  . = Palm Mute

Note : The solo of this song is very hard to figure. Specially the part
       that Mark Tremonti used his killer legato! If you can't figure out
       the solo, try to create your own solo in the key of E. If you have
       questions about this tab, feel free to email me or send a message
       on my facebook.

Intro :

C#-----------------------------------------------|
G#-----------------------------------------------|
E------------------------------------------------| (2x)
B------------------------------------------------|
F#------3----------3(1)~---------3---------------|
B-3-5-5---5--5-3-5---------3-5-5---5-(3)b5-Pause-|


Verse :

C#-----------------------|-----------------------|-----------------------|
G#-8-------6-------------|-8-------6-------------|-8-------6~-------3----|
E------0--------0------0-|-----0--------0------0-|-----0--------3-2---0~-|(3x)
B--5-5---5----5---5--0---|-5-5---5----5---5--0---|-5-5---5---------------|
F#-----------------------|-----------------------|-----------------------|
B------------------------|-----------------------|-----------------------|

Then..
C#---------------------------------------|
G#-8-------8~-------10~------------------|
E------0--------0------------------------|
B--5-5---5--------5--7~------------------|
F#---------------------------------------|
B-------------------------18181818181818-|


Chorus :

C#---------------------------------------------------------|
G#-4-4-4-4-4-4---8-8-8-8-8--6-6-6-6-6-6--8-8-8-8-8-8-------|
E--3-3-3-3-3-3---7-7-7-7-7--5-5-5-55-5--7-7-7-7-7-7-------|
B--1-1-1-1-1-1/5-5-5-5-5-5--3-3-3-3-3-3--5-5-5-5-5-5--10-7-|
F#-1-1-1-1-1-1/5-5-5-5-5-5--3-3-3-3-3-3--5-5-5-5-5-5---8-5-|
B--1-1-1-1-1-1/5-5-5-5-5-5--3-3-3-3-3-3--5-5-5-5-5-5-------|


C#------------------------------------------------------------------------|
G#---4-4-4-4-4---8-8-8-8-8--6-6-6-6-6-6--8-8-8-8-8-8----------4-4-4-------|
E----3-3-3-3-3---7-7-7-7-7--5-5-5-55-5--7-7-7-7-7-7----------3-3-3-------|
B--1-1-1-1-1-1/5-5-5-5-5-5--3-3-3-3-3-3--5-5-5-5-5-5--10-7--1-1-1-1-1--0~-|
F#-1-1-1-1-1-1/5-5-5-5-5-5--3-3-3-3-3-3--5-5-5-5-5-5---8-5--1-1-1-1-1--0~-|
B--1-1-1-1-1-1/5-5-5-5-5-5--3-3-3-3-3-3--5-5-5-5-5-5--------1-1-1-1-1--0~-|


Repeat Verse
Repeat Chorus


Bridge :

C#------------------------------------------------|
G#------------------------------------------------|
E-------------------------------------------------|
B-------------------------------------------------|
F#------3----------3-1~-----------3---------------|
B-3-5-5---5--5-3-5--------5-3-5-5---5-(3)b5-Pause-|

C#----------------------------------------------|
G#----------------------------------------------|
E-----------------------------------------------|
B-----------------------------------------------|
F#------3----------3-1~-----------3-------------|
B-3-5-5---5--5-3-5--------5-3-5-5---5-3b5-Pause-|


C#----------------------------------------------|
G#----------------------------------------------|
E-----------------------------------------------|
B-----------------------------------------------|
F#------3----------3-1~-----------3-------------|
B-3-5-5---5--5-3-5--------5-3-5-5---5-3b5-Pause-|

C#------------------------------------------------|
G#------------------------------------------------|
E-------------------------------------------------|
B-------------------------------------------------|
F#------3----------3-1~-----------3---------------|
B-3-5-5---5--5-3-5--------5-3-5-5---5-(3)b5-Pause-|


Last Chorus :

C#---------------------------------------------------------|
G#-4-4-4-4-4-4---8-8-8-8-8--6-6-6-6-6-6--8-8-8-8-8-8-------|
E--3-3-3-3-3-3---7-7-7-7-7--5-5-5-55-5--7-7-7-7-7-7-------|(3x)
B--1-1-1-1-1-1/5-5-5-5-5-5--3-3-3-3-3-3--5-5-5-5-5-5--10-7-|
F#-1-1-1-1-1-1/5-5-5-5-5-5--3-3-3-3-3-3--5-5-5-5-5-5---8-5-|
B--1-1-1-1-1-1/5-5-5-5-5-5--3-3-3-3-3-3--5-5-5-5-5-5-------|

Then..
C#------------------------------------------------------------------------|
G#---4-4-4-4-4---8-8-8-8-8--6-6-6-6-6-6--8-8-8-8-8-8----------4-4-4-------|
E----3-3-3-3-3---7-7-7-7-7--5-5-5-55-5--7-7-7-7-7-7----------3-3-3-------|
B--1-1-1-1-1-1/5-5-5-5-5-5--3-3-3-3-3-3--5-5-5-5-5-5--10-7--1-1-1-1-1--0~-|
F#-1-1-1-1-1-1/5-5-5-5-5-5--3-3-3-3-3-3--5-5-5-5-5-5---8-5--1-1-1-1-1--0~-|
B--1-1-1-1-1-1/5-5-5-5-5-5--3-3-3-3-3-3--5-5-5-5-5-5--------1-1-1-1-1--0~-|


Outro :

C#------------------------|---------------------------|
G#------------------------|---------------------------|
E-------------------------|---------------------------|
B-------------------------|---------------------------|
F#------3----------3-(1)~-|---------3----------3-(5)~-|
B-3-5-5---5--5-3-5--------|-5-3-5-5---5--5-3-5--------|

C#------------------------|---------------------------------|
G#------------------------|---------------------------------|
E-------------------------|---------------------------------|
B-------------------------|---------------------------------|
F#------3----------3-(1)~-|-3-------3-------8~--3-5---------|
B-3-5-5---5--5-3-5--------|---5-5-5---5-5-5-8~--3-5-(Pause)-|

Creed & Alter Bridge Forever!=) Rock on!!!
Tap to rate this tab
 
# A B C D E F G H I J K L M N O P Q R S T U V W X Y Z