Song name
# A B C D E F G H I J K L M N O P Q R S T U V W X Y Z

Creed - With Arms Wide Open tab

Artist: Creed
Title: Arms Wide Open

Standard Tuning
* - Hold note
~ - Vibrato
h - Hammer on
p - Pull off
^ - Bend

Intro & Verse

e|---------------------------------------------|
B|--0h1---------1--------1h3----1--------0h1p0-|
G|-------0--------0----------------0-----------|
D|---------0-----------------------------------|
A|--3--------3-------3-------3--------3--------|
E|---------------------------------------------|

e|------------------------------------------|
B|-0h1----------1-------3-----1-------0h1p0-|
G|------0---------0-------0-----0-----------|  ** See Note  
D|--------0---------------------------------|
A|-2--------2--------2------2-----2---------|
E|------------------------------------------|
  
e|-----------------------------------------|
B|---0h1--------0------0h1p0---------0-----|
G|-------0--------0-----------0--------0---|
D|---------0--------------------0----------|
A|---0-------0------0-------------0------0-|
E|-----------------------------------------|

e|-------------------------------| 
B|---0h1---1--1p0----------------| 
G|----------------0--------------| 
D|-------------------------------|}Do this twice b4 u start over
A|---0-------0-----------0-------| 
E|-------------------------------|


**On the second time around and every time after play...

e|------------------------------------------|
B|-0h1----------1-------1h3----1------0h1p0-|
G|------0---------0--------------0----------|   
D|--------0---------------------------------|
A|-2--------2--------2------2------2--------|
E|------------------------------------------|


On the 2nd verse there is a little different riff:

e|------------------------------------------|
B|---0h1--------0------1p0---------0h1p0----|
G|-------0--------0-----------0----------0--| Play this instead of
D|---------0--------------------0---------0-| the intro ending.
A|---0-------0------0-----------------------|
E|------------------------------------------|


Okay,  the Chords are:

During Verse:                        
   ___    ___    _Am    ___           [In that order.]
 e  3      0      0      0
 B  3      2      1      0
 G  5      0      2      0
 A  5      0      2      2   }Repeat Twice
 D  3      2      0      0
 E  x      0      x      x

During Chorus:
   ___    ___    _E_    ___           [In that order.]
 e  1      3      0      5      
 B  1      3      0      5
 G  2      5      1      7
 A  3      5      2      7   }Repeat Twice
 D  3      3      2      5
 E  1      x      0      x


SOLO
(Repeat several times.)

E------------------------
B--------5--6----5h6p5~--
G-5--7-------------------
A------------------------
D------------------------
E------------------------

E------------------------
B--------5--6----5-6-5~--
G-5--7-------------------
A------------------------
D------------------------
E------------------------

E----------------------------------------------------
B--------5--8--6--5----6-5~--6-5~--6-5~---6-8^10*--8-
G-5--7-----------------------------------------------
A----------------------------------------------------
D----------------------------------------------------
E----------------------------------------------------

Have fun,    it's a great song..

Comments?
Jenn
Homette@Woodstock.com
Tap to rate this tab
# A B C D E F G H I J K L M N O P Q R S T U V W X Y Z