Guitaretab - guitar tabs
Song name
# A B C D E F G H I J K L M N O P Q R S T U V W X Y Z

Creed - My Sacrifice tab

My names Brad this was origanally worked out by my guitar teacher he show it to me i tabbed it.
This is not the proper way to play the song but it sounds the same and its in drop D

Tuning Dadgbe

p=pull off
h=hammer on
< >=natural harmonic
( )=ghost note,dont replay the note let it ring from when you played it before
 . =palm mute


INTRO (play with your distorton but turn down volume on your guitar)

e ---------------------------------------------------------5--*-(5)p0-
b --------------------------------------------------------------------
g -------------------------------------------------7----------*-(7)p0-
d ------11---11h12---12----------------------7----------------*-(7)p0-                   a --------------------------------------------------------------------
D --/9-----9-------9-----9-----9\7---7\5--5-----5------5------*-(5)p0- 

*Dont actually play the notes just have your fingers on the stings and pull off it gives the effect

e ---------------------------------------------------------------------------------
b ---------------------------------------------------------------------------------
g ---7-7p6--6h7-7--7-7p6-6h7-7/11-11h12--------------------------------------------
d ---0-0----0---0--0-0---0---0----0--------------11-----11h12----12----------------
a ---0-0----0---0--0-0---0--------0------------------------------------------------
D ---------------------------------------0---/9------9--------9------9---9\7----7\5
                                                                

e ---------------------5------*(5)-------------------------------------------------
b ---------------------------------------------------------------------------------
g ------------<7>-------------*(7)-------------------------------------------------
d -------<7>------------------*(7)------12p11-11h12--x12xx12xx14p12----------------
a --------------------------------------12p11-11h12--x12xx12xx14p12----------------
D --5-------5------5----------*(5)------12p11-11h12--x12xx12xx14p12----------------
                                         
*Okay now turn your volume up on guitar

e ---------------------------------------------------
b --------12---------------------8-------------------
g --------11---------------------7-------------------
d -9------9-----9--99--9999--5---5---5--5--5555------
a -9------9-----9--99--9999--5---5---5--5--5555------
D -9------9-----9--99--9999--5---5---5--5--5555------
Okay you dont have to play it exactly like this im trying to emphasize how its done just make sure you listen to the song.

CHORUS
    D         A        B             G 
e --2-------------------------------------------------
b --3-----------------------12--------------------------
g --2-----------------------11-------------------------- 
d --0---------7--------9---(9)-------5---------53--xx3----------
a ------------7--------9---(9)-------5---------53--xx3---------
D ------------7--------9---(9)-------5---------53--xx3---------
Listen for strumming


Bridge part

e --------------------------------------------------
b --------------------------------------------------
g -----11p9-99---9p7-77---7p6-66----4h6-6h7-7/9/11--    
d -0---0----00-0-0---00-0-0---00-00-0---0---0-------  Play this a few times
a -0-----------0--------0--------00-----------------
D -0-----------0--------0--------00-----------------
   .           .        .        ..                      


e ---------------------------------------------------------------------------
b ----11-11-11----11-11-------------------------11-11-11----11-11-11---------
g ----10-10-10----10-10-------------------------10-10-10----10-10-10---------
d -0--8--8--8---0-8--8------------------------0-8--8--8---0-8--8--8--0-0-0-0-
a -0------------0-----------------------------0-----------0----------0-0-0-0-
D -0------------0--------do-a-plektrum-slide--0-----------0----------0-0-0-0-
   .            .                             .           .          . . .
 
after this its the qiet part no distortion play the chords from the chorus

Ok thats it Just listen to the song for the stumming and that other shit and try use a distortion with lots of bass.

[ Tab from: http://www.guitaretab.com/c/creed/23868.html ]
Related for My Sacrifice tab
×
Best way to learn
"My Sacrifice"