Song name
# A B C D E F G H I J K L M N O P Q R S T U V W X Y Z

Creedence Clearwater Revival - Commotion tab

 CREEDENCE CLEARWATER REVIVAL - COMMOTION
 ----------------------------------------

 (D-Tuning, so tune the guitar down to D!)


 Riff 1:

  e|--------(0)-------------------------------------------|
  H|------------------------------------------------------|
  G|---(2b4)----2p0---------------------------------------|
  D|----------------2-2-----------------------------------|
  A|------------------------------------------------------|
  E|------------------------------------------------------|


 Riff 2:

  e|--3-x-3b4---------------------------------------------|
  H|--3-x-3b4---------------------------------------------|
  G|------------------------------------------------------|
  D|------------------------------------------------------|
  A|------------------------------------------------------|
  E|------------------------------------------------------|


  Riff 3:

  e|--3-x-3b4---------------------------------------------|
  H|--3-x-3b4---------------------------------------------|
  G|------------------------------------------------------|
  D|------------------------------------------------------|
  A|------------------------------------------------------|
  E|------------------------------------------------------|


----------------------------------------------------------------------------


 INTRO:

  e|--------12--12-12-12--12----12-15b17-15b17-15b17-15-12----12-------------|
  H|--12-15------------------15----------------------------15----------------|
  G|-------------------------------------------------------------14b16r14-12-|
  D|-------------------------------------------------------------------------|
  A|-------------------------------------------------------------------------|
  E|-------------------------------------------------------------------------|

  e|-------------------------------------------------------------------------|
  H|---------------14b16r14(p12)----------------------14b15r14(p12)----------|
  G|-----12-14p12--14b16r14(p12)----14-12-------------14b15r14(p12)----14-12-|
  D|--14-------------------------14-------14p12-14------------------14-------|
  A|-------------------------------------------------------------------------|
  E|-------------------------------------------------------------------------|

  e|--7-6-5-3--------0-0-0-0-0-0-0-----0-0-0-0-0-0-0------------|
  H|--7-6-5-3--------0-0-0-0-0-0-0-----0-0-0-0-0-0-0------------|
  G|-----------------1-1-1-1-1-1-1-----1-1-1-1-1-1-1------------|
  D|-----------------2-2-2-2-2-2-2-----2-2-2-2-2-2-2------------|
  A|-----------------2-2-2-2-2-2-2-----2-2-2-2-2-2-2------------|
  E|--7-6-5-3-----0--0-0-0-0-0-0-0---0-0-0-0-0-0-0-0------------|

  Traffic in the city turns my head around.
  No, no, no, no, no.
  (Riff 1)

  Backed up on the freeway
  (Riff 2),
  backed up in the church,
  (Riff 2)
  Ev'rywhere you look there's a frown, frown.
  (Riff 1)

  (mute the E-chord):

  Com, commotion,
  Git, git, git, gone.
  Com, commotion,
  Git, git, git, gone.

  (Riff 3)

  People keep atalkin', they don't say a word.
  Jaw, jaw, jaw, jaw, jaw.
  (Riff 1)

  Talk up in the White House
  (Riff 2),
  talk up to your door
  (Riff 2),
  So much goin' on I just can't hear.
  (Riff 1)

  (mute the E-chord):

  Com, commotion,
  Git, git, git, gone.
  Com, commotion,
  Git, git, git, gone.

  SOLO:

  e|--------12--12-12-12--12----12-12-12-15--16b17-16b17-16-12--------12-|
  H|--12-15------------------15---------------------------------15b17----|
  G|---------------------------------------------------------------------|
  D|---------------------------------------------------------------------|
  A|---------------------------------------------------------------------|
  E|---------------------------------------------------------------------|


  e|--------12--------12----------------------|
  H|--15b17-----15b17-----14b16r14-12-14b16---|
  G|------------------------------------------|
  D|------------------------------------------|
  A|------------------------------------------|
  E|------------------------------------------|

  e|-----15-17p15--17b19r17p15----17-15-------------17b19r17p15----17-15----|
  H|--17-----------------------17-------17p15-17----------------17----------|
  G|------------------------------------------------------------------------|
  D|------------------------------------------------------------------------|
  A|------------------------------------------------------------------------|
  E|------------------------------------------------------------------------|


               (4x)
  e|--7-6-5-3--|--(0-0-0)--7-----------------|
  H|--7-6-5-3--|--(0-0-0)--8-----------------|
  G|-----------|-------------9-7-9-----------|
  D|-----------|-------------9-7-9-----------|
  A|-----------|-----------------------------|
  E|--7-6-5-3--|-----------------------------|


  Hurryin' to get there so you save some time.
  Run, run, run, run, run.
  (Riff 1)

  Rushin' to the treadmill
  (Riff 2),
  rushin' to get home,
  (Riff 2)
  Worry 'bout the time you save, save.
  (Riff 1)

  (mute the E-chord):

  Com, commotion,
  Git, git, git, gone.
  Com, commotion,
  Git, git, git, gone.
  Com, commotion,
  Git, git, git, gone.

                 (7x)
  e|-------------|-----0-0---------------|
  H|-------------|-----0-0---------------|
  G|-------------|-----------------------|
  D|----5--------|---------5-------------|
  A|------7-5-7--|-----------7-5-7-------|
  E|--0----------|---0-------------------|


                 (6x)
  e|-------------|-------7-------|--8---7---|---0-0-0-0-0-0-0-0-0-0-0--|
  H|----9--------|---9-9-7-9-----|--8-9-7---|---0-0-0-0-0-0-0-0-0-0-0--|
  G|----9--------|---9-9---9-----|----9-----|---1-1-1-1-1-1-1-1-1-1-1--|
  D|-------------|---------------|----------|---2-2-2-2-2-2-2-2-2-2-2--|
  A|-------------|---------------|----------|---2-2-2-2-2-2-2-2-2-2-2--|
  E|--0----------|---------------|----------|---0-0-0-0-0-0-0-0-0-0-0--|



By: Ramona H.
    Hennef, 01.01.08
Tap to rate this tab
# A B C D E F G H I J K L M N O P Q R S T U V W X Y Z