Song name
# A B C D E F G H I J K L M N O P Q R S T U V W X Y Z

Creedence Clearwater Revival - Hey Tonight tab

Artist: Creedence Clearwater Revival
Song: Hey Tonight

Slide Up:\
Slide Down:/
Bend: b(value)

Pretty Basic So I Didn't Tab Every Single Note Instead Layed Out The Pattern
The Song Is Mainly Rythm But Its Cool  :))

Intro:--------------------------------------------------------------------|

e--12--9--7-------0--0--0--|    |----0----0---0----0----0----0----0----0--|
B--0------0--5\0-----2--0--|    |----0----0---0----0----0----0----0----0--|
G--------------------------| X3 |--4----4-------4-----4----4---------4----|
D--------------------------|    |--6----4---1---4-----6----4----1----4----|
A--------------------------|    |-----------2-------------------2---------|
E--------------------------|    |-----------------------------------------|


         E1 pattern                     A Pattern

|---------------------------|  |-----0-----0-----0----0--|
|-----0-----0------0-----0--|  |-----2-----2-----2----2--|
|-----1-----1------1-----1--|  |--2-----2-----2-----2----|
|-----2-----2------2-----2--|  |--2-----2-----2-----2----|
|---------------------------|  |--0-----0-----0-----0----|
|--0-----0------0-----0-----|  |-------------------------|


         E2 Pattern

|-----0-----0-----0-----0--|  
|-----0-----0-----0-----0--|  
|-----1-----1-----1-----1--|  
|--2-----2-----2-----2-----|  
|--2-----2-----2-----2-----|  
|--------------------------|  

 
 Chorus: (follow rythm pattern)

|----------------------------------------------------|
|----------------------------------------------------|
|----------------------------------------------------|
|--4-4-6-4-4-4-6-4-4-4-6-4-4-4-6-4-4-4-6-4-4-4-6-4---|
|--2-2-2-2-2-2-2-2-2-2-2-2-4-4-4-4-4-4-4-4-4-4-4-4---|
|----------------------------------------------------|

E1
Hey Tonight gonna be tonight don't change now I'm flyin' To-
A        E2
Night to-night
E1
Hey Come on gonna change tomarrow to-
A        E2
night to-night

chorus:
Gonna get into the rafters watch me now
Jodie's gonna find religion all night long

E1
Hey come on gonna hear the song
A       E2
tonight tonight

|-0--0--0---0-0--0--0--0--0--0--0--0--0--0--0--|
|-9-----10----9--5-----0-----0-----0-----0--0--|
|----------------------4-----2-----1-----1-----| X2
|----------------------------------------2-----|
|----------------------------------------------|
|----------------------------------------------|

A Pattern  E Pattern  A Pattern  E Pattern

B  E1
ah hey tonight gonna be tonight
A       E2       A 
tonight Tonight  Tonight

Tonight
       
       Ending: Play and Fade

             |---0-----0-----0-----0--|
             |---0-----0-----0-----0--|
             |-4----4-----1-----4-----|
             |-6----4-----2-----4-----|
             |------------------------|
             |------------------------|
Tap to rate this tab
# A B C D E F G H I J K L M N O P Q R S T U V W X Y Z