Song name
# A B C D E F G H I J K L M N O P Q R S T U V W X Y Z

Creedence Clearwater Revival - Bad Moon Rising tab

Help us improve GuitareTab! Take a short survey!
Guitar should be tuned down a whole step for this one.

if there are any questions my email is gratefulcreedence@yahoo.com
Intro

(E/B) (B) (A) (E)

chords E B7 A

fill starts after Fogerty says i hear hurricanes a blowin and continues through the 
song except when he says i hear the voice of rage and ruin you dont play a fill and the 
come after you play the (A) chord.


E-----0---------------------------|
B--------2-----------0---2p-------|
G-0h1--------0h1------------------|
D---------------------------------|
A---------------------------------|
E---------------------------------|

Solo

E-----4---4---4----2---0----0-------/1------------|
B----/5---5---5----4---2----0-------/2------------|
G-----4---5--------4---2----1---------------------|
D-------------------------------------------------|
A-------------------------------------------------|
E-------------------------------------------------|

E-----0---------------------------|
B--------2-----------0---2p-------|
G-0h1--------0h1------------------|
D---------------------------------|
A---------------------------------|
E---------------------------------|

E---/4---4---4---2--5---4----4-----7--4----0------------0------|
B---/5---5---5---4--6---5-------5-------------oh2-------0------|
G----4---4-------4--6---4--------------------------0h1---------|
D--------------------------------------------------------------|
A--------------------------------------------------------------|
E--------------------------------------------------------------|


E----------5---5-------5---5---0---0------0--0-----7---7---7--5---|
B--5---7---5---5---7---5---7---0---0---2--0--0--2--7---9---7--5---|
G--6---6-----------6---6---6---1-------1--1-----1--8----------6---|
D--7--------------------------------------------------------------|
A-----------------------------------------------------------------|
E-----------------------------------------------------------------|


E--5---5----0---------0--0------0---0------0---0-------------|
B--7---5--------2-----0--0---2--0---0--2---0---0---2---------|
G------6--------1-----1--1---1--1------1-------1---1---------|
D------------------------------------------------------------|
A------------------------------------------------------------|
E------------------------------------------------------------|

Now just play the chords and the fills for the rest of the song
its very simple, so have fun with it.
Related for Bad Moon Rising tab