Song name
# A B C D E F G H I J K L M N O P Q R S T U V W X Y Z

Crossfaith - Countdown To Hell tab

INTRO

C#||---------------------------------------------------------------------|
G#||---------------------------------------------------------------------|
E ||----------------------------------------88888888-8\7-77b8b7-77b8b7---|
B ||---------------------------------------------------------------------|
F#||-1p0--0--1p0--0--1p0---0-0--0-0-0--0-0--66666666-6\5-55b6b5-55b6b5---|
B ||-1p0--0--1p0--0--1p0---0-0--0-0-0--0-0-------------------------------|
          *       *        * *    *    * *

C#||---------------------------------------------------------------------|
G#||---------------------------------------------------------------------|
E ||----------------------------------------88888888-8\7-77b8b7-77b8b7---|
B ||---------------------------------------------------------------------|
F#||-1p0--0--1p0--0--1p0---0-0--0-0-0--0-0--66666666-6\5-55b6b5-55b6b5---|
B ||-1p0--0--1p0--0--1p0---0-0--0-0-0--0-0-------------------------------|
          *       *        * *    *    * *

C#||---------------------------------------------------------------------|
G#||---------------------------------------------------------------------|
E ||----------------------------------------88888888-8\7-77b8b7-77b8b7---|
B ||---------------------------------------------------------------------|
F#||-1p0--0--1p0--0--1p0---0-0--0-0-0--0-0--66666666-6\5-55b6b5-55b6b5---|
B ||-1p0--0--1p0--0--1p0---0-0--0-0-0--0-0-------------------------------|
          *       *        * *    *    * *

C#||---------------------------------------------------------------------|
G#||---------------------------------------------------------------------|
E ||----------------------------------------88888888-8\7-77b8b7-77b8b7---|
B ||---------------------------------------------------------------------|
F#||-1p0--0--1p0--0--1p0---0-0--0-0-0--0-0--66666666-6\5-55b6b5-55b6b5---|
B ||-1p0--0--1p0--0--1p0---0-0--0-0-0--0-0-------------------------------|
          *       *        * *    *    * *


C#||---------------------------------------------------------------------|
G#||---------------------------------------------------------------------|
E ||---------------------------------------------------------------------|
B ||---------------------------------------------------------------------|
F#||-1p0--0--1p0--0--1p0-------------------------------------------------|
B ||-1p0--0--1p0--0--1p0-------------------------------------------------|
          *       *

                                  

COOL RIFF

C#||---------------------------------------------------------------------|
G#||---------------------------------------------------------------------|
E ||---------------------------------------------------------------------|
B ||---------------------------------------------------------------------|
F#||------12----6------12------6---5---5-------5------------5---------3--|
B ||-0000----00---0000----0000---0---0----0000---0-6--0-5-7---7-5-3-5--5-|
     ****    **   ****    ****   *   *    ****   *    *

C#||---------------------------------------------------------------------|
G#||---------------------------------------------------------------------|
E ||---------------------------------------------------------------------|
B ||---------------------------------------------------------------------|
F#||------12----6------12------6---5---5-------12-------------10---------|
B ||-0000----00---0000----0000---0---0---12-13----13-12-10-12----12-10-8-|
     ****    **   ****    ****   *   *

   ---------------|
   ---------------|
   ---------------|
   ---------------|
   ----8----------|
   -10---10-8-7---|

C#||---------------------------------------------------------------------|
G#||---------------------------------------------------------------------|
E ||---------------------------------------------------------------------|
B ||---------------------------------------------------------------------|
F#||------12----6------12------6---5---5-------5------------5---------3--|
B ||-0000----00---0000----0000---0---0----0000---0-6--0-5-7---7-5-3-5--5-|
     ****    **   ****    ****   *   *    ****   *    *

C#||---------------------------------------------------------------------|
G#||---------------------------------------------------------------------|
E ||---------------------------------------------------------------------|
B ||---------------------------------------------------------------------|
F#||------12----6------12------6---5---5-------12-------------10---------|
B ||-0000----00---0000----0000---0---0---12-13----13-12-10-12----12-10-8-|
     ****    **   ****    ****   *   *

   ---------------|
   ---------------|
   ---------------|
   ---------------|
   ----8----------|
   -10---10-8-7---|


BRIDGE

C#||--------------------------------------|
G#||--------------------------------------|
E ||--------------------------------------|
B ||--------------------------------------|
F#||-1p0--0--1p0--1p0----5p0--------------|
B ||-1p0--0--1p0--1p0--------7p0-5p0-3p0--|
          *

VERSE

C#||-----------------------------------------------------------------------|
G#||-----------------------------------------------------------------------|
E ||-----------------------------------------------------------------------|
B ||-----------------------------------------------------------------------|
F#||-1p0--0--1p0--0--1p0---5p0------------------12---6-----12----6---5---5-|
B ||-1p0--0--1p0--0--1p0-------7p0-5p0-3p0---0-0----0--0-0----0-0--0---0---|
          *       *                          * *    *  * *    * *  *   *

C#||-----------------------------------------------------------------------|
G#||-----------------------------------------------------------------------|
E ||-----------------------------------------------------------------------|
B ||-----------------------------------------------------------------------|
F#||-1p0-0-1p0-0-1p0--5p0------------------5p0-------------12-----------10-|
B ||-1p0-0-1p0-0-1p0------7p0-5p0-3p0--0-0----5p0-0-0-12-13--13-12-10-12---|
         *     *                       * *    ^   * *
                              not too sure about these two pull offs
                               but sounds alright and doesn't really
                                      make a difference.

C#||-----------------------------------------------------------------------|
G#||-----------------------------------------------------------------------|
E ||-----------------------------------------------------------------------|
B ||-----------------------------------------------------------------------|
F#||-1p0--0--1p0--0--1p0---5p0------------------12---6-----12----6---5---5-|
B ||-1p0--0--1p0--0--1p0-------7p0-5p0-3p0---0-0----0--0-0----0-0--0---0---|
          *       *                          * *    *  * *    * *  *   *

C#||-----------------------------------------------------------------------|
G#||-----------------------------------------------------------------------|
E ||-----------------------------------------------------------------------|
B ||-----------------------------------------------------------------------|
F#||-1p0-0-1p0-0-1p0-5p0----------------------12-----------10----------8---|
B ||-1p0-0-1p0-0-1p0-----7p0-5p0-3p0-0-0-12-13--13-12-10-12--12-10-8-10-10-|
         *     *                     * *

PRE CHORUS #1

C#||---------------------------------------------------------------------|
G#||---------------------------------------------------------------------|
E ||----------------------------------------88888888-8\7-77b8b7-77b8b7---|
B ||---------------------------------------------------------------------|
F#||-1p0--0--1p0--0--1p0---0-0--0-0-0--0-0--66666666-6\5-55b6b5-55B6b5---|
B ||-1p0--0--1p0--0--1p0---0-0--0-0-0--0-0-------------------------------|
          *       *        * *    *    * *
C#||---------------------------------------------------------------------|
G#||---------------------------------------------------------------------|
E ||----------------------------------------88888888-8\7-77b8b7----------|
B ||--------------------------------------------------------------\------|
F#||-1p0--0--1p0--0--1p0---0-0--0-0-0--0-0--66666666-6\5-55b6b5---\------|
B ||-1p0--0--1p0--0--1p0---0-0--0-0-0--0-0------------------------\------|
          *       *        * *    *    * *

CHORUS

C#||------------------------------------------------------------------|
G#||------------------------------------------------------------------|
E ||------------------------------------------------------------------|
B ||------------------------------------------------------------------|
F#||-0-0--6-5------5-----------3----0-0--5-3--0-0--5-3--0-0--1p0------|
B ||-0-0--6-5--0-0---7-6-5-3-5---5--0-0--5-3--0-0--5-3--0-0--1p0------|
     * *       * *                  * *       * *       * *

C#||------------------------------------------------------------------|
G#||------------------------------------------------------------------|
E ||------------------------------------------------------------------|
B ||------------------------------------------------------------------|
F#||-0-0--6-5------5-----------3----0-0--5-3--0-0--5-3--0-0--1~-------|
B ||-0-0--6-5--0-0---7-6-5-3-5---5--0-0--5-3--0-0--5-3--0-0--1~-------|
     * *       * *                  * *       * *       * *

C#||------------------------------------------------------------------|
G#||------------------------------------------------------------------|
E ||------------------------------------------------------------------|
B ||------------------------------------------------------------------|
F#||-0-0--6-5------5-----------3----0-0--5-3--0-0--5-3--0-0--1p0------|
B ||-0-0--6-5--0-0---7-6-5-3-5---5--0-0--5-3--0-0--5-3--0-0--1p0------|
     * *       * *                  * *       * *       * *

C#||------------------------------------------------------------------|
G#||------------------------------------------------------------------|
E ||------------------------------------------------------------------|
B ||------------------------------------------------------------------|
F#||-0-0--6-5------5-----------3----0-0--5-3---00-5-00-3-00-55--------|
B ||-0-0--6-5--0-0---7-6-5-3-5---5--0-0--5-3---00-5-00-3-00-55--------|
     * *       * *                  * *        **   **   **

POST CHORUS

C#||------------------------------------|
G#||------------------------------------|
E ||------------------------------------|
B ||------------------------------------|
F#||-0000-3-00-6-00-5-0-3-0-33----------|
B ||-0000-3-00-6-00-5-0-3-0-33----------|
     ****   **   **   *   *

C#||------------------------------------|
G#||------------------------------------|
E ||------------------------33----------|
B ||------------------------------------|
F#||-0000-3-00-6-00-5-0-3-0-55----------|
B ||-0000-3-00-6-00-5-0-3-0-------------|         BOTH TOGETHER X2
     ****   **   **   *   *



C#||------------|
G#||------------|
E ||-----5------|
B ||------------|
F#||------------|
B ||------------|
         ^
Play a harmonic on this note to get that long whiny ring


VERSE


PRE CHORUS #2

Let the strings ring for some feedback and then...

C#||------------------------------------------------------|
G#||------------------------------------------------------|
E ||------------------------------------------------------|
B ||-------------------------------------\----------------|
F#||-0-0-0-0-0-0-0-0-0-0-0-0-0-0-0-0-0---\----------------|
B ||-0-0-0-0-0-0-0-0-0-0-0-0-0-0-0-0-0---\----------------|
     * * * * * * * * * * * * * * * * *
   Start quiet and build up louder and louder...


CHORUS

POST CHORUS


BREAKDOWN BRIDGE

C#||-----------------------------------------------------|
G#||-----------------------------------------------------|
E ||-----------------------------------------------------|
B ||-----------------------------------------------------|
F#||-0~~--1~~--4~~--3~~---0~~--1~~--4~~--3~--------------|
B ||-0~~--1~~--4~~--3~~---0~~--1~~--4~~--3~---/15~-------|   x2
                                               ^
                                   This is a nice sloooooow slide

BREAKDOWN WOOO!

C#||------------------------------------------------------------------------|
G#||------------------------------------------------------------------------|
E ||--------------------------------------------------------------7-6-5-7-6-|
B ||------------------------------------------------------------------------|
F#||-100000-3--0-3--0-3~---00000-7--0-6--0-5~---00000-3-----------5-4-3-5-4-|
B ||-100000-3--0-3--0-3~---00000-7--0-6--0-5~---00000-3--0-0--0-0-----------|
      *****    *    *      *****    *    *      *****    *    *

                             

C#||------------------------------------------------------------------------|
G#||------------------------------------------------------------------------|
E ||--------------------------------------------------------------7-6-5-7-6-|
B ||------------------------------------------------------------------------|
F#||--------3--0-3--0-3~---00000-7--0-6--0-5~---00000-3-----------5-4-3-5-4-|
B ||--------3--0-3--0-3~---00000-7--0-6--0-5~---00000-3--0-0--0-0-----------|
               *    *      *****    *    *      *****    *    *

                       

C#||------------------------------------------------------------------------|
G#||------------------------------------------------------------------------|
E ||--------------------------------------------------------------7-6-5-7-6-|
B ||------------------------------------------------------------------------|
F#||--------3--0-3--0-3~---00000-7--0-6--0-5~---00000-3-----------5-4-3-5-4-|
B ||--------3--0-3--0-3~---00000-7--0-6--0-5~---00000-3--0-0--0-0-----------|
               *    *      *****    *    *      *****    *    *

                       < F#||----0-0-----0-0------| >
                       < B ||----0-0-----0-0------| >

C#||------------------------------------------------------------------------|
G#||------------------------------------------------------------------------|
E ||--------------------------------------------------------------7-6-5-7-6-|
B ||------------------------------------------------------------------------|
F#||--------3--0-3--0-3~---00000-7--0-6--0-5~---00000-3-----------5-4-3-5-4-|
B ||--------3--0-3--0-3~---00000-7--0-6--0-5~---00000-3--0-0--0-0-----------|
               *    *      *****    *    *      *****    *    *


That's the song! I'm pretty sure this tab is almost 100% correct (ish) even if it isn't 
it still sounds sweet. Awesome song. Awesome band.

Happy Shredding :D

b - Bend
* - Palm mute
~ - Let ring
/ - Slide up
\ - Slide down


As a note, the pull offs in the verse and chugging in the cool riff are just rough 
templates just use what feels right for you.
Tap to rate this tab
# A B C D E F G H I J K L M N O P Q R S T U V W X Y Z