Song name
# A B C D E F G H I J K L M N O P Q R S T U V W X Y Z

Cuby And The Blizzards - Window Of My Eyes tab

Help us improve GuitareTab! Take a short survey!
Cuby and the Blizzards - Window of my Eyes

One of Holland's greatest blues bands to date.

Intro:
Eb D Gm F

Gm          F     Eb     D
Through the window of my eyes
Gm        F  Eb    D
    I can see the rainy day
Eb             Bb     F           Gm
Sitting in the chair    of my cool room
Gm                  F  Eb              D
  Looking for a way    to be the one i am
D               C
It's useless to cry
Bb               A
For the things i once have known
Eb               D             G            D
Thinking it will come back and reach my home

It's like a distant, like a distant face
It's like the shadow on my wall
Something that
That i cannot touch
A heavenly past that calls
The shelter of my mind
Hides my laugh and my tear
And i keep on looking for a reason which is not here

Solo (which has the same chord progression as the verses)
Listen to the song to get the rhythm right.

e -----------------10--------------10--10----|
B 8---------11-----13^----13-11-13-13^-13^---|
G 10^-------13^------------------------------|
D -------------------------------------------|
A -------------------------------------------|
E -------------------------------------------|

e 15-----------13----------------------10----|
B 18^----18-15-16^-----11---11---11-13-13^---|
G ---------------------13^--13^--------------|
D -------------------------------------------|
A -------------------------------------------|
E -------------------------------------------|

e -------------------------------------------|
B 8---------6-------13--13----12-------------|
G 10^-------8^------15^-15^---14^------------|
D -------------------------------------------|
A -------------------------------------------|
E -------------------------------------------|

e -----------------------------5-------------|
B 3--------6-------------------8^------------|
G 5^-------8^-------5-----5-7----------------|
D ------------------8^-----------------------|
A -------------------------------------------|
E -------------------------------------------|

e 10------------10----8----------13----12----|
B 13^-----------13^---11^--------16^---15^---|
G -------------------------------------------|
D -------------------------------------------|
A -------------------------------------------|
E -------------------------------------------|

e -------------------------------------------|
B 4--------3------6------8---------7---------|
G 6^-------5^-----8^-----10^-------9^--------|
D -------------------------------------------|
A -------------------------------------------|
E -------------------------------------------|

e -------------------------------------------|
B /8-----------------------------------------|
G -------------------------------------------|
D -------------------------------------------|
A -------------------------------------------|
E -------------------------------------------|

Repeat verse 1

End

Have fun!

Lon Masselink

^: full bend
/: slide to
Related for Window Of My Eyes tab