Song name
# A B C D E F G H I J K L M N O P Q R S T U V W X Y Z

Cuby And The Blizzards - Another Day Another Road chords

Highlighted       Show chord diagrams
Main riff:
Gm                    \
   Gm F    Eb  F       \
e|-------------------   \
B|-------------------     play this section twice 
G|----6p5p3----------
D|--5------5-0-3-4-5-   /
A|-------------------  /
E|------------------- /

Gm

   Gm F    Eb        D 
e|-------------------------------------|
B|-------------------------------------|
G|----6p5p3-------------6p5p3----------|
D|--5------5----------5------5-0-3-4-5-|
A|-------------------------------------|
E|-------------------------------------|

Gm          F
Another day, another road
Gm             F
Won't you carry my heavy load?
Gm            F                         Gm
Tell me, baby, what's the end of this affair?

Gm
(riff)

Gm            F
Another house, another room
Gm                  F
Can't you see, babe, I'm on the move?
Gm                               F              Gm
What in this world, what in this world is going on?

Solo:
C
Gm
Eb
A   D

Gm            F
Another house, another room
Gm                  F
Can't you see, babe, I'm on the move?
Gm                               F              Gm
What in this world, what in this world is going on?

(Main riff)

Gm          F
Another day, another road
Gm             F
Won't you carry my heavy load?
Gm            F                         Gm
Tell me, baby, what's the end of this affair?

   Gm F    Eb        D 
e|-------------------------------------|
B|-------------------------------------|
G|----6p5p3-------------6p5p3----------|
D|--5------5----------5------5-0-3-4-5-|
A|-------------------------------------|
E|-------------------------------------|

End in Gm
Tap to rate this tab
# A B C D E F G H I J K L M N O P Q R S T U V W X Y Z