Song name
# A B C D E F G H I J K L M N O P Q R S T U V W X Y Z

Cueshe - Hard To Believe tab

Highlighted       Show chord diagrams
Hard To Believe
Cueshe

Tabbed By:JASON PANTIG- of SNUFFBOX

Chords Used: (EADGBe) E-x799xx or 0223xx; D-x577xx ; A-577xxx; F- 133xxx 
C9- x32033; Em(add9)- 022033; Bb(add9)- 01x033; A(add9)-x02233
C*- x32010 G*320033 Bm*-x24432; Dm*-xx0231
(the rest of the chords are done using power chords!! (lam nyo n un..)


intro: Guitar2: E-D-A-F 2x then hold C
Guitar 1:
e-----------------------------|    |---------------------|
b--5-5h6-5--------------------|    |---------3--3-1-0h1--|
g----------7-5-3-2-2-2h3-2----|(2x)|----3h5--------------|
d--------------------------3--|    |--3h5----------------|
a-----------------------------|    |---------------------|
e-----------------------------|    |---------------------|

stanza:

C9           Em(add9)
I find it hard to believe
Bb(add9)             A(add9)           Dm*
That all the pains that we are felling
          C*                Bm*-G*
Has some meaning in this world.
C9         Em(add9)
It\'s so hard to believe
Bb(add9)          A(add9)            Dm*
When everything you see is different
         C*                       Bm*-G*
From the things that you\'ve been told.

Chorus:(dapat power chords gamit nyo)
C        Em       Am       G-F
I wanted life to be this way
        Dm             C                 Bm  A-G
Just a little bit of love could mean so much.
C                 Em      Am   G-F
Oh please don\'t take it all way.
             Dm               C              Bm  A-G
But with you heaven is still close enough to touch.

                           II
(Chords of I)
I find it hard to believe
That someone up there is waiting
With arms open wide and smiling
It\'s so hard to believe
When someone told me that your suffering
Is what you get for living
(Repeat Chorus)

Bridge:
       Bb                       A
Because your love is still the only thing
       Dm        F(hold)
That matters in this world
           C      G    C  A-G
The only thing I can believe


adlib:Guitar 1
e-----------------------------------10----10----10-------|
b---------------------------------3\---3\----3\----------|
g--------------------------------------------------------|
d-5-5-3-2-5--3\5--7-7\8-7-5-3----------------------------|
a-----------------------------5--------------------------|
e--------------------------------------------------------|

e------------------------------------10----10---10--16-15|
b----------------------------------3\---3\---3\----------|
g--------------------------------------------------------|
d-3\5-5-5-3-2-5--3\5--7-7\8-7-10-5-----------------------|
a--------------------------------------------------------|
e--------------------------------------------------------|

guitar 2: C - Em - A - G-F -- D - C - B - A-G 2x


(Repeat Chorus)
(Repeat Bridge except last word)
           C  A- G
.........believe
           C      G     A-  G
The only thing I can believe
           C       G (hold)
The only thing I can

.....believe

outro: same as intro except do the guitar 1 once.. ok??

enjoy my tab!! pls rate it... astig '2ng pag cover ng cueshe sa kanta ng eheads!!
kung my mali email nyo lng me.. mr_newguy16@yahoo.com
special greetings to my marellen.... -27-
and to my band snuffbox!!
Tap to rate this tab
# A B C D E F G H I J K L M N O P Q R S T U V W X Y Z