Song name
# A B C D E F G H I J K L M N O P Q R S T U V W X Y Z

Cueshe - Stay Acoustic tab

                            Tabbed by: Mark Peters
                        Email: markpeterz@hotmail.co.uk

This song is from the second and *CURRENTLY UNRELEASED* upcoming album from The Panic Division
- Songs From The Glasshouse.

I heard this song when hanging out with the band, Colton played it on his ipod, and i
loved it. Its also posted on their myspace now too.

The core of the song is electronic with guitar support.. so i meshed the two together
and made a funky acoustic version of the song, mainly picking up on chords, that would
the song if you were to sing/play along with it. As the song is SO NEW, there arent
lyrics available for it.. but ive tried to write them out and indicate changes as
as
can!

**Chord patterns are not conventional (and arent of conventional names), but
it does work very well with the song!**


Tuning: Standard

Capo: Fret 3


     A5   A*   E    G*  G11   C*

e|---0----0----0----0----0----0-----------------------------------------------------|
B|---0----0----0----0----0----2-----------------------------------------------------|
G|---2----2----1----2----2----4-----------------------------------------------------|
D|---2----0----2----0----0----2-----------------------------------------------------|
A|---0----0----2----0----0----0-----------------------------------------------------|
E|---0----0----0----2----3----0-----------------------------------------------------|
|

Intro: A5, A*

Verse 1:

A5
Well our hands are tied
                               A*
My dearest friend, this is our last goodbye
A5                                       A*
Can we pretend that its 1969 when we were young, when we were young
E                                                                       G*
A world that gave you everything, and suddenly youre forced to leave it
                   A5                  A*
Its the end of the road for me... and you
                    A5                    G11
And i cant make you stay, no matter what i do...

*(Drums come in)*

Verse 2:

A5
My heart is hung
                              A*
My dearest friend, when your life runs dry
A5                                                    A*
And our days were young, and numbered in time after time
E                                              G*
I had to let go of this heart of stone, thats driven me for so long
                   A5                  A*
Its the end of the road for me... and you
               C*   A5   G11  G*
The end of the rooooooooad....
               A5
The end of the road

*(Guitaring comes in)*   (carry on alternating between A5&A*)

                A5
The end of the road...   (Pick up pace of strumming)

Verse 3:

A5
My heart is hung
                              A*
My dearest friend, when your life runs dry
A5                                         A*
Get off your bed, cuz i realised that im still in love

Im still in love
    A5                              A*
So stay, cuz im still in love with you
               A5                           A*
I want you to stay yeah, Im still in with you
              A5
Im still in love

*(Guitar Solo)* (Just alternate between A5&A* again here until the end)


e|--------------------------------------------------------------|
B|--------------------------------------------------------------|
G|----4----2-----------(REPEAT)-----2-----------------(REPEAT)--|
D|--------------2-------------------------2-----0---------------|
A|--------------------------------------------------------------|
E|--------------------------------------------------------------|


THE END


www.myspace.com/thepanicdivision

Record Label: The Militia Group
Tap to rate this tab
# A B C D E F G H I J K L M N O P Q R S T U V W X Y Z