Song name
# A B C D E F G H I J K L M N O P Q R S T U V W X Y Z

Cueshe - 24 Hour tab

song: 24 hours
artist: cueshe
album: half empty half full
tabbed by: james bryan baquial
email: dyems007@yahoo.com
0012506121910
tuning: EADGBE
h-hammer
b-bend
p-pull off
s-slide
r-release and let ring

i'm 99.9% sure

chords: c#m,f
intro:
         11x
e|----------------------|
B|----------------------|
G|-----------9-8--------|
D|-----------9-9--------|
A|----------------------|
E|---------0------------|

verse:1
           5x
      c#m  G#m     A2                  B5      A2
e|-----------------0--------0-------|--------------------------------|
B|----5-4h5-4------x----0-----0-----|---------0--0h2p0--0------------|
G|----6-4---x------x--0---0---------|---4-----2-2------2-------------|
D|----6-----x------x-------------2--|---4-----2----------------------|
A|----4-----x------0----------------|---2-----0----------------------|
E|----------4-----------------------|--------------------------------|

chorus: E,B5,c#5,A5
        E,B5,c#5,F#5,A5,,,,,,,,,,,B,A2


adlib:::

try lang
e|----------------------------------------------------------------------------|
B|-------------------------------------------------------------13b-p12--------|
G|----------------------------------------------9-11---13b-11---------11s13b--|
D|--13b--11--9h11b-p9----------------------9-11-------------------------------|
A|-----------------------11-9s11-11----11-------------------------------------|
E|----------------------------------------------------------------------------|


e|---11b----------------------------------------------------------|
B|-------14--13b-----------------------------------12s14----------|
G|---------------11s13b----------------------11h13----------------|
D|----------------------11s14-13--13b---9h11----------------------|
A|----------------------------------------------------------------|
E|----------------------------------------------------------------|

verse:-------- same as verse 1

chorus::E,B5,c#5,A5                              3x
        E,B5,c#5,F#5,A5,,,,,,,,B5,A5..........

refrain:

(B,,c#m),,c#m,B,A2,,,,,,(F,F#--G#,A... but do couple top string only E and A)


verse:3

        same as verse 1 ----- do it 3x then B,A5 then

e|---------------------------------------|
B|---------------------------------------|
G|---------------------------------------|
D|---------------------------------------|
A|--11h12p11----9---9h11p9---------------|
E|-------------------------9-12----------|

repeat chorus:

outro:

e|---------------|
B|---5-4---------|
G|-------4-------|
D|---------------|


any coments just email me!!!11
Tap to rate this tab
# A B C D E F G H I J K L M N O P Q R S T U V W X Y Z